Song name
# A B C D E F G H I J K L M N O P Q R S T U V W X Y Z

Ryan Cabrera - Shine On Live Acoustic tab

================
Shine On live/acoustic
================
By: Ryan Cabrera tabbed by KENTON GOODBURN email me at summer_crush@hotmail.com if Q.
================

I tabbed this from a live audio not the album audio so this is how Ryan plays Shine On
usually. Its pretty much the same as the album version just the album version he plays
the capo on the first fret and I’m guessing not the exact same notes. he plays it a half
step down live most of the time. This tab is pretty much 100% accurate.HAVE FUN.the other
I saw for shine on are crap…enjoy.o by the way if there are any small mistakes dont
me by then i'll alread of had them figured out.i put this tab up without checking for
i think all is well...

Tuned have a step down for live
Capo fret 1   for album version

Intro

|----------------------------------0-----3---|
|----------------------------------5-----0---|
|-----------------5--4-----------------------|
|-----------7-5-------------2----------0-----|
|------------------------0-3----0------3-----|
|--12/3-3/5-----3------1--------3------------|

|--------------------------------------------|
|----------------------------------5---------|
|-----------------5--4-------------0-----0---|
|-----------7-5-------------2------------7---| intro
|------------------------0-3-----------------|
|-------3/5-----3------1--------3-----4------|

verse

|-----------------------------0-----3---|
|-----------------------------5-----0---|
|------------5--4-----------------------|
|------7-5-------------2----------0-----|
|-------------------0-3----0------3-----|
|--3/5-----3------1--------3------------|

|---------------------------------------|
|-----------------------------5---------|
|------------5--4-------------0-----0---|
|------7-5-------------2------------7---| X2
|-------------------0-3-----------------|
|--3/5-----3------1--------3-----4------|

Pre chorus
e|-5-|-0-|-3-|-0-|-0-|
b|-5-|-0-|-3-|-1-|-3-|
g|-5-|-8-|-0-|-2-|-4-|
D|-7-|-6-|-0-|-3-|-5-|
A|-7-|-7-|-2-|-3-|-5-|
E|-5-|-4-|-3-|-0-|-0-|
   I Know...

e|-5-|-0-|-3-|
b|-5-|-0-|-3-|
g|-5-|-8-|-0-|
D|-7-|-6-|-0-|
A|-7-|-7-|-2-|
E|-5-|-4-|-3-|
   You know...

Chorus

e|-0-|-0-|-3-|-0-|
b|-1-|-1-|-0-|-1-|
g|-2-|-0-|-0-|-2-|
D|-3-|-2-|-0-|-2-| x3
A|-3-|-3-|-2-|-0-|
E|-0-|-0-|-3-|-0-|
Shine on

e|-0-|-0-|-3-|-x-|
b|-1-|-1-|-3-|-x-|
g|-2-|-2-|-0-|-x-|palm mute
D|-3-|-2-|-0-|-x-|
A|-3-|-0-|-0-|-x-|
E|-0-|-0-|-3-|-x-|

Ourto to chorus
|--------------------------------------------|
|--------------------------------------------|
|-----------------5--4------------5----------|
|-----------7-5-------------2-----------7----|
|------------------------0-3-----0-----0-----|
|-----1/5-------3------1--------3-----4------|
verse
|-----------------------------0-----3---|
|-----------------------------5-----0---|
|-----------------5--4------------------|
|------7-5-------------2----------0-----|
|-------------------0-3----0------3-----|
|--3/5-----3------1--------3------------|

|---------------------------------------|
|-----------------------------5---------|
|------------5--4-------------0-----0---|
|------7-5-------------2------------7---| X2
|-------------------0-3-----------------|
|--3/5-----3------1--------3-----4------|

pre chorus
e|-5-|-0-|-3-|-0-|-0-|
b|-5-|-0-|-3-|-1-|-3-|
g|-5-|-8-|-0-|-2-|-4-|
D|-7-|-6-|-0-|-3-|-5-|
A|-7-|-7-|-2-|-3-|-5-|
E|-5-|-4-|-3-|-0-|-0-|
   I Know...

e|-5-|-0-|-3-|
b|-5-|-0-|-3-|
g|-5-|-8-|-0-|
D|-7-|-6-|-0-|
A|-7-|-7-|-2-|
E|-5-|-4-|-3-|
 You know...

Chorus

e|-0-|-0-|-3-|-0-|
b|-1-|-1-|-0-|-1-|
g|-2-|-0-|-0-|-2-|
D|-3-|-2-|-0-|-2-| x3
A|-3-|-3-|-2-|-0-|
E|-0-|-0-|-3-|-0-|
Shine on
e|-0-|-0-|-3-|
b|-1-|-1-|-3-|
g|-2-|-2-|-0-|
D|-3-|-2-|-0-|
A|-3-|-0-|-0-|
E|-0-|-0-|-3-|
Shine on

Bridge

e|-5-|-7-|-8--|-7-|-3-|
b|-6-|-8-|-9--|-8-|-3-|
g|-7-|-9-|-10-|-9-|-0-|
D|-7-|-9-|-10-|-9-|-0-|
A|-5-|-7-|-8--|-7-|-2-|
E|-5-|-7-|-8--|-7-|-3-|

|---3-----3---3-----3---3----3-3-x-|
|----1---1-----3----1----1---1-3—x-|
|--2---------------2---2-------0-x-|
|-3-----2---------2---3-----2--0-x-|
|------3-----2----0--------3---2-x-|
|-----------3------------------3-x-|

e|-0-|-0-|-3-|-0-|
b|-1-|-1-|-3-|-1-|
g|-2-|-0-|-0-|-2-|
D|-3-|-2-|-0-|-2-|
A|-3-|-3-|-0-|-0-|
E|-0-|-0-|-3-|-0-|

e|-0-|-0-|-3-|
b|-1-|-1-|-0-|
g|-2-|-0-|-0-|
D|-3-|-2-|-0-|
A|-3-|-3-|-2-|
E|-0-|-0-|-3-|

Chours

e|-0-|-0-|-3-|-0-|
b|-1-|-1-|-0-|-1-|
g|-2-|-0-|-0-|-2-|
D|-3-|-2-|-0-|-2-| x3
A|-3-|-3-|-2-|-0-|
E|-0-|-0-|-3-|-0-|
Shine on

e|-0-|-0-|-3-|
b|-1-|-1-|-3-|
g|-2-|-2-|-0-|
D|-3-|-2-|-0-|
A|-3-|-0-|-0-|
E|-0-|-0-|-3-|

ending/outro

e|-0-|-0-|-0-|-0-|-0-|
b|-0-|-0-|-0-|-0-|-0-|
g|-5-|-4-|-2-|-4-|-6-|
D|-5-|-5-|-3-|-5-|-7-|
A|-0-|-0-|-0-|-0-|-0-|
E|-5-|-3-|-1-|-3-|-5-|

e|-0-|-0-|-0-|-0-|
b|-0-|-0-|-0-|-0-|
g|-5-|-4-|-2-|-4-|
D|-5-|-5-|-3-|-5-|
A|-0-|-0-|-0-|-0-|
E|-5-|-3-|-1-|-3-|

e|------0-|
b|-----0--|
g|----5---|
D|---5----|
A|--0-----|
E|-5------|

please rate
Tap to rate this tab
# A B C D E F G H I J K L M N O P Q R S T U V W X Y Z