Song name
# A B C D E F G H I J K L M N O P Q R S T U V W X Y Z

Ryan Hudak - Im Finding It Hard tab

-------------------------------------------------------------------------------
                             SONG NAME - IM FINDING IT HARD
-------------------------------------------------------------------------------
Tabbed by: Ryan Hudak
E-mail: guitarhudak@yahoo.com



e|-----------------------------------------------------------------------------------|
B|1--------1--------1--------1---------1--------1------------------------------------|
G|--2-----------------2-------------------2------------------------------------------|
D|----3--------2--------3--------2-----------3-----2---------------------------------|
A|----------------3------------------3----------------3------------------------------|
E|-----------------------------------------------------------------------------------|

e|--------------------------------------------------------------------------------|
B|-1----------------2---------3---------------------------------------------------|
G|----2----------------1----------------------------------------------------------|
D|-2------2-----------------------------------------------------------------------|
A|-----------2------3-----------1-------------------------------------------------|
E|----------------------------2---------------------------------------------------|


************************************

| /   slide up
| \   slide down
| h   hammer-on
| p   pull-off
| ~   vibrato
| +   harmonic
| x   Mute note
| b   Bend
| pb  Pre-bend
| br  Bend release
| pbr Pre-bend release
| brb Bend release bend

************************************
Tap to rate this tab
# A B C D E F G H I J K L M N O P Q R S T U V W X Y Z