Song name
# A B C D E F G H I J K L M N O P Q R S T U V W X Y Z

Ryan Hudak - You Hold The World tab

-------------------------------------------------------------------------------
                             SONG NAME - You hold the world
-------------------------------------------------------------------------------
Tabbed by: Ryan Hudak
E-mail: guitarhudak@yahoo.com

Tuning:
     B         A                 C#m
e|------------------------------|
B|-44---------------------------|
G|-44---222----5555-/-6666------|
D|-44---222----6666-------------|
A|-22----------4444-------------|
E|------------------------------|
          C                        G                                  D
e|--------------------------------22222222222222-/---------------------------|
B|-3333333-/---333333333333-/---33333333333333-/-----------------------------|
G|-------------------------------22222222222222-/----------------------------|
D|-2222222-/-----------------------------------------------------------------|
A|-3333333-/---222222222222-/------------------------------------------------|
E|--------------333333333333-/-----------------------------------------------|

          C                       G                                 D
e|-7777777-/------------------------22222222222222-/-------------------------------|
B|----------------333333333333-/---33333333333333-/--------------------------------|
G|----------------------------------22222222222222-/-------------------------------|
D|-2222222-/-----------------------------------------------------------------------|
A|-3333333-/-----222222222222-/----------------------------------------------------|
E|----------------333333333333-/---------------------------------------------------|
      B         A         C#m
e|--------------------------------------------------------------------|
B|-44-----------------------------------------------------------------|
G|-44---222----5555-/-6666--------------------------------------------|
D|-44---222----6666---------------------------------------------------|
A|-22----------4444---------------------------------------------------|
E|--------------------------------------------------------------------|
Tap to rate this tab
# A B C D E F G H I J K L M N O P Q R S T U V W X Y Z