Song name
# A B C D E F G H I J K L M N O P Q R S T U V W X Y Z

Ryan Hudak - You tab

-----------------------------------------------------------------------------
     SONG NAME - You - Artist Name - Ryan Hudak
-----------------------------------------------------------------------------
Tabbed by: Ryan Hudak
E-mail: rhudak82@yahoo.com

Key: (A)

Verse 1
                      (A/E)
e|---------------------------------2-2-2-2-2-2-2--|  Play verse one time then
B|---------------------------------3-3-3-3-3-3-3--|  Go right into the chorus
G|-2-2-2-2-2-2-2---2-2-2-2-2-2-2---2-2-2-2-2-2-2--|  In the verses a little,
D|-2-2-2-2-2-2-2---2-2-2-2-2-2-2------------------|  Keyboard in the back round
A|------------------------------------------------|  Sounding like a organ.
E|-----------------2-2-2-2-2-2-2------------------|
                      (A/E)
e|---------------------------------2-2-2-2-2-2-2-|
B|---------------------------------3-3-3-3-3-3-3-|
G|-2-2-2-2-2-2-2---2-2-2-2-2-2-2---2-2-2-2-2-2-2-|
D|-2-2-2-2-2-2-2---2-2-2-2-2-2-2-----------------|
A|-----------------------------------------------|
E|-----------------2-2-2-2-2-2-2-----------------|

Chorus - Full band hear you do chorus once, and then back into the (2) verse
                      (A/E)
e|---------------------------------2-2-2-2-2-2-2-2-2-----------------|
B|---------------------------------3-3-3-3-3-3-3-3-3-----------------|
G|-2-2-2-2-2-2-2---2-2-2-2-2-2-2---2-2-2-2-2-2-2-2-2---2-2-2-2-2-2-2-|
D|-2-2-2-2-2-2-2---2-2-2-2-2-2-2-----------------------2-2-2-2-2-2-2-|
A|-------------------------------------------------------------------|
E|-----------------2-2-2-2-2-2-2-------------------------------------|
      (A/E)
e|-----------------2-2-2-2-2-2-2-2-2-----------------| Let the (A) ring out
B|-----------------3-3-3-3-3-3-3-3-3-----------------| At the end of the
G|-2-2-2-2-2-2-2---2-2-2-2-2-2-2-2-2---2-2-2-2-2-2-2-| Chorus
D|-2-2-2-2-2-2-2-----------------------2-2-2-2-2-2-2-|
A|---------------------------------------------------|
E|-2-2-2-2-2-2-2-------------------------------------|

Verse 2
                      (A/E)
e|---------------------------------2-2-2-2-2-2-2-|
B|---------------------------------3-3-3-3-3-3-3-|
G|-2-2-2-2-2-2-2---2-2-2-2-2-2-2---2-2-2-2-2-2-2-|
D|-2-2-2-2-2-2-2---2-2-2-2-2-2-2-----------------|
A|-----------------------------------------------|
E|-----------------2-2-2-2-2-2-2-----------------|
                      (A/E)
e|---------------------------------2-2-2-2-2-2-2-|
B|---------------------------------3-3-3-3-3-3-3-|
G|-2-2-2-2-2-2-2---2-2-2-2-2-2-2---2-2-2-2-2-2-2-|
D|-2-2-2-2-2-2-2---2-2-2-2-2-2-2-----------------|
A|-----------------------------------------------|
E|-----------------2-2-2-2-2-2-2-----------------|

Chorus - (2#) Full band hear
                      (A/E)
e|---------------------------------2-2-2-2-2-2-2-2-2-----------------|
B|---------------------------------3-3-3-3-3-3-3-3-3-----------------|
G|-2-2-2-2-2-2-2---2-2-2-2-2-2-2---2-2-2-2-2-2-2-2-2---2-2-2-2-2-2-2-|
D|-2-2-2-2-2-2-2---2-2-2-2-2-2-2-----------------------2-2-2-2-2-2-2-|
A|-------------------------------------------------------------------|
E|-----------------2-2-2-2-2-2-2-------------------------------------|
      (A/E)
e|-----------------2-2-2-2-2-2-2-2-2-|
B|-----------------3-3-3-3-3-3-3-3-3-|
G|-2-2-2-2-2-2-2---2-2-2-2-2-2-2-2-2-|
D|-2-2-2-2-2-2-2---------------------|
A|-----------------------------------|
E|-2-2-2-2-2-2-2---------------------|

Once you get to the (1#) chorus of the song, the band is full through out the whole song 
from there So that means, all the instruments are in.

( Instruments Needed for song )

* Acoustic Guitar
* Electric Guitar
* Electric Keyboard - Organ in the back round
* Drums
* Bass
* Piano - a little of it single notes
Tap to rate this tab
 
# A B C D E F G H I J K L M N O P Q R S T U V W X Y Z