Song name
# A B C D E F G H I J K L M N O P Q R S T U V W X Y Z

Ryan Hudak - Dreamer tab

Verse 1

     G         C          G       D    C    G       G         C         G      D     C   G     C    D

E--3-3-3-3-------------3-3-3-3-------------3-3---3-3-3-3-------------3-3-3-3-------------3-3-------------|
A--2-2-2-2---3-3-3-3---2-2-2-2---------3---2-2---2-2-2-2---3-3-3-3---2-2-2-2---------3---2-2---3-3-------|
D------------2-2-2-2-------------------2-------------------2-2-2-2-------------------2---------2-2-------|
G------------3-3-3-3-------------2-2---3---3-3-------------3-3-3-3-------------2-2---3---3-3---3-3---2-2-|
B--3-3-3-3-------------3-3-3-3---3-3-------------3-3-3-3-------------3-3-3-3---3-3-------------------3-3-|
E--------------------------------2-2-------------------------------------------2-2-------------------2-2-|
Picking on the strings for the acoustic guitar


Piano Tabs - These are the piano tabs to the song - ( R ) means Right Hand & ( L ) means 
Left hand

      G              C              G
E--------------------------------------------|   Single notes on the piano
A--------------------------------------------|
D--L-D-X-R-G------L-C-X-R-C------L-D-X-R-G---|
G--L-G-X-R-B-B----L-E-X-R-E-E----L-G-X-R-B-B-|
B--L-B-X-R-D------L-G-X-R-G------L-B-X-R-D---|
E--------------------------------------------|

I know this might not look like much but this is the whole song.
If you have any questions, about the album pleas fell free to email me anytime,
And I will get back to you as soon as I can.

Thank you

( Instruments for song )

* Acoustic Guitar
* Grand Piano
* Electric Piano W/ Organ
Tap to rate this tab
# A B C D E F G H I J K L M N O P Q R S T U V W X Y Z