Song name
# A B C D E F G H I J K L M N O P Q R S T U V W X Y Z

Ryan Huston - Love You Forever tab

Love You Forever

Intro and Verses:

E|-X----X-----X----X-------------|
B|-3-----3-----3----3------------|
G|-0-----0-----0----0------------|
D|-2-----4-----0----2------------|
A|-3-----5-----2----2------------|
E|-X-----X----3-----0------------|

Chorus:

E|-3-----3-----3----0-------------|
B|-3-----3-----3----3-------------|
G|-0-----0-----0----0-------------|
D|-0-----0-----2----2-------------|
A|-X-----X-----2----3-------------|
E|-3-----2------0-----0-----------|

After chorus….

”together we’ll be, yea…”
E|-X-----X-----------|
B|-3-----3-----------|
G|-0-----0-----------|
D|-4-----2-----------|
A|-5-----3-----------|
E|-X-----X-----------|

Bridge:

E|-0----X-----3----X------|
B|-3-----3-----3----3-----|
G|-0-----0-----0----2-----|
D|-2-----2-----0----0-----|
A|-2-----3-----2----0-----|
E|-0-----X----3-----2-----|
Tap to rate this tab
 
# A B C D E F G H I J K L M N O P Q R S T U V W X Y Z