Song name
# A B C D E F G H I J K L M N O P Q R S T U V W X Y Z

Ryan Leslie - Gibberish tab

-------------------------------------------------------------------------------
			     SONG NAME - Band Name
-------------------------------------------------------------------------------
Tabbed by: Barry G.
Email:

Tuning: Standard


Intro:  
e|--1--1--1--1--1----1----1----0--|
B|--1--1--1--1--1----3----3----1--|
G|--2--2--2--2--2----2----3----0--|
D|--3--3--3--3--3----0----0----2--|
A|--X--X--X--X--X----X----X----3--|
E|--X--X--X--X--X----X----X----X--|

e|--0----1----1----0--------------|
B|--1----3----3----1--------------|
G|--2----2----3----0--------------|
D|--2----0----0----2--------------|
A|--0----X----X----3--------------|
E|--X----X----X----X--------------|




VERSE/CHORUS: (Repeat throughout song)a
e|--1----1----1----0----0----1----1----0----------|
B|--1----3----3----1----1----3----3----1----------|
G|--2----2----3----0----2----2----3----0----------|
D|--3----0----0----2----2----0----0----2----------|
A|--X----X----X----3----0----X----X----3----------|
E|--X----X----X----X----X----X----X----X----------|





Ryan Leslie's Official website: http://www.ryanleslie.com/
************************************

| /   slide up
| \   slide down
| h   hammer-on
| p   pull-off
| ~   vibrato
| +   harmonic
| x   Mute note
| b   Bend
| pb  Pre-bend
| br  Bend release
| pbr Pre-bend release
| brb Bend release bend

************************************
Tap to rate this tab
 
# A B C D E F G H I J K L M N O P Q R S T U V W X Y Z