Song name
# A B C D E F G H I J K L M N O P Q R S T U V W X Y Z

Ryan Long - For Heavens Sake tab

Verse:
---5-----7-----5---|
---5-----7-----7---|
---6-----8-----7---|
---7-----7-----7---|
---7-----9-----5---|
---5-----7---------|

Bridge:
But I remember the truth that he swore by...
---5-----7---|
---7-----7---|
---7-----8---|
---7-----7---|
---5-----9---|
---------7---|

Chorus:
I'm gonna fly away...
---2-----5-----5-----7---|
---2-----5-----7-----7---|
---2-----6-----7-----8---|
---4-----7-----7-----7---|
---4-----7-----5-----9---|
---2-----5-----------7---|

Rock-a-bye baby there's no need to cry...
---7-----5-----5-----7-----5---|
---7-----7-----5-----7-----7---|
---8-----7-----6-----8-----7---|
---7-----7-----7-----7-----7---|
---9-----5-----7-----9-----5---|
---7-----------5-----7---------|
Tap to rate this tab
# A B C D E F G H I J K L M N O P Q R S T U V W X Y Z