Song name
# A B C D E F G H I J K L M N O P Q R S T U V W X Y Z

Ryan Long - Im Not Waving Im Drowning tab

Drop D tunning!

e-----------------------------|
b-----------------------------|
g-----------------------------|
d--2--5-----9-----------------|
a--2--5-----9-----------------|  (intro)
e--2--5--7--9-----------------|

e-----------------------------|
b-----------------------------|
g-----------------------------|  (verse)
d--9--7--5050-----------------|
a--9--7--5454-----------------|
e--9--7--5555-0---------------|

e--5*-xxx--2--x---------------|
b--3--222--3--2---------------|
g--2--242--4--2----2-4--------|  start back at intro and verse
d--0--222--4--2--2/4-5--2-----|  *not necessary
a--0--000--2--0--2/4-5--2-----|
e--0--xxx--x--x---------2-----|

e-----------------------------|
b--------3--------------------|
g--------2--------------------|  (bridge)
d--7--5--0--7--5--9--7--------|
a--7--5--0--7--5--9--7--------|
e--7--5--0--7--5--9--7--------|
Tap to rate this tab
# A B C D E F G H I J K L M N O P Q R S T U V W X Y Z