Song name
# A B C D E F G H I J K L M N O P Q R S T U V W X Y Z

Ryan Matthew - Chrome tab

Song:Chrome
Artist:Butterfingers
Tabber:Mirumo

Wei aku mintak maaf banyak-banyak sebab x dpt nak susun tab yang aku buat nii...so aku
ko bley carik timing die berpandukan kaset ke cd ke mp3 ke ok...Ha waktu verse gitar 1
main rythm skali k tp pandai-pandai laa timing nak masuk lead mase chorus or solo tu
1 part solo tu patutnye ade hammer pull off  tp aku x letak so kalo ko rase bunyi x
tanpe hammer pull off 2 ko carik arr sendiri k...so start jamming the song
SCENE<<<<<<

Tuning:EADGBe

 Guitar 1
 Intro                            Chorus
e|---------------------------------------------------------------------------|
B|----------10-11----------------------------10-11---------------------------|
G|--10-10-----------8b--------------10-10-------------8---10-8-7-8-----------|
D|--------8-------8-----------------------8---------8------------------------|
A|---------------------------------------------------------------------------|
E|---------------------------------------------------------------------------|
 Solo 1
e|---------------------------------------------------------------------------|
B|---------------------------------------------------------------------------|
G|------7----------------------7-----------7----7----------------------------|
D|--8-8---10--10-8-10--10-8-10---10-8-8--8---10---10-8-8---------------------|
A|---------------------------------------------------------------------------|
E|---------------------------------------------------------------------------|
 Solo 2
e|---------------------------------------------------------------------------|
B|---------------------------------------------------------------------------|
G|--10-10--------------------------------------------------------------------|
D|--------12-12-12--10-8-10--10-8-10-12-10-8-8--8-12-10-12-10-8-8------------|
A|---------------------------------------------------------------------------|
E|---------------------------------------------------------------------------|
 Guitar 2
 intro 1
e|---------------------------------------------------------------------------|
B|---------------------------------------------------------------------------|
G|---------------------------------------------------------------------------|
D|--888888-------------------------------------------------------------------|
A|--666666-------------------------------------------------------------------|
E|---------------------------------------------------------------------------|
 Intro 2/Chorus
e|---------------------------------------------------------------------------|
B|---------------------------------------------------------------------------|
G|---------------------------------------------------------------------------|
D|---------888888------------------------------------------------------------|
A|--888888-666666------------------------------------------------------------|
E|--666666-------------------------------------------------------------------|
 Verse
e|---------------------------------------------------------------------------|
B|---------------------------------------------------------------------------|
G|--------------------77--5-7-6-7--77--5-7-6-7-------------------------------|
D|--7777777--8888888--55--3-5-4-5--55--3-5-4-5-------------------------------|
A|--5555555--6666666---------------------------------------------------------|
E|---------------------------------------------------------------------------|

e|----------------------------------------------------------------|
B|----------------------------------------------------------------|
G|--------------------77--5-7-6-7--7777777--555555555-------------|
D|--7777777--8888888--55--3-5-4-5--5555555--333333333--888888888--|
A|--5555555--6666666-----------------------------------666666666--|
E|----------------------------------------------------------------|
 Solo
e|---------------------------------------------------------------------------|
B|---------------------------------------------------------------------------|
G|---------------------------------------------------------------------------|
D|------------------88888888888888-------------------------------------------|
A|--88888888888888--66666666666666-------------------------------------------|
E|--66666666666666-----------------------------------------------------------|

| /  slide up
| \  slide down
| h  hammer-on
| p  pull-off
| ~  vibrato
| +  harmonic
| x  Mute note
==================================================================
Tap to rate this tab
 
# A B C D E F G H I J K L M N O P Q R S T U V W X Y Z