Song name
# A B C D E F G H I J K L M N O P Q R S T U V W X Y Z

Ryan Oshaughnessy - No Name tab

Amazing song and I tried my best to figure out the real tabs cause there wasnt a correct 
one of how Ryan plays it. Think its dead on Hope you find this useful
NO CAPO

Tuning : DADF#AD (Ryan uses this and DADGAD Dad Gad a lot)
E - Down to D
A - Keep Same
D - Keep Same
G - Down to F#
B - Down to A
E - Down to D

Intro

Between each part slide your fingers as this is what he does

D -----7--------7--------7--------5--------4--------4--------4--------4-----|
A ----0--0-----0--0-----0--0-----0--0-----0--0-----0--0-----0--0-----0--0---|
F#---8----8---8----8---7----7---5----5---0----0---0----0---0----0---0----0--|
D --------------------------------------------------------------------------| x2
A --------------------------------------------------------------------------|
D -0--------0--------0--------0--------0--------0--------0--------0---------|

Play the above twice but on the last part play it as a chord
D ---4--|
A ---0--|
F# --0--
D ------|
A ------|
D ---0--|

Verse 1

Everynow and then I see a part of you Ive never seen
D -------7--------7--------7--------5--------4--------4--------4--------4----|
A ------0--0-----0--0-----0--0-----0--0-----0--0-----0--0-----0--0-----0--0--|
F# ----8----8---8----8---7----7---5----5---0----0---0----0---0----0---0----0-|
D ---------------------------------------------------------------------------|
A ---------------------------------------------------------------------------|
D ---0--------0--------0--------0--------0--------0--------0--------0--------|

Birds can swim and fish can fly the road is long no wonder why
D -------7--------7--------7--------5--------4--------4--------4--------4----|
A ------0--0-----0--0-----0--0-----0--0-----0--0-----0--0-----0--0-----0--0--|
F# ----8----8---8----8---7----7---5----5---0----0---0----0---0----0---0----0-|
D ---------------------------------------------------------------------------|
A ---------------------------------------------------------------------------|
D ---0--------0--------0--------0--------0--------0--------0--------0--------|

One of these days youll realize what you mean to me ohhh

D -----2--------2---------5---------7---------2--------2--------0--------0----|
A ----0--0-----0--0------0--0------0--0------0--0-----0--0-----0--0-----0--0--|
F#---3----3---3----3----5----5---10----10---0----0---0----0---0----0---0----0-|
D ----------------------------------------------------------------------------|
A -0--------0---------0---------0---------------------------------------------|
D -----------------------------------------0--------0--------0--------0-------|

Every now and then I see a part of you Ive never seen
D ------2--------2-----------5---------7--------2--------2--------0-------0--|
A -----0--0-----0--0-------0--0------0--0------0--0-----0--0-----0--0-----0--|
F#----3----3---3----3-----5----5---10----10---0----0---0----0---0----0----0--|
D ---------------------------------------------------------------------------|
A --0--------0---------0---------0-------------------------------------------|
D ------------------------------------------0--------0--------0-----------0--|

Verse 2

Every now and then I try to tell you just how I feel
D -------7--------7--------7--------5--------4--------4--------4--------4----|
A ------0--0-----0--0-----0--0-----0--0-----0--0-----0--0-----0--0-----0--0--|
F#-----8----8---8----8---7----7---5----5---0----0---0----0---0----0---0----0-|
D ---------------------------------------------------------------------------|
A ---------------------------------------------------------------------------|
D ---0--------0--------0--------0--------0--------0--------0--------0--------|

The heavens talk the rain begins the sky turns black nobody wins
D -------7--------7--------7--------5--------4--------4--------4--------4----|
A ------0--0-----0--0-----0--0-----0--0-----0--0-----0--0-----0--0-----0--0--|
F#-----8----8---8----8---7----7---5----5---0----0---0----0---0----0---0----0-|
D ---------------------------------------------------------------------------|
A ---------------------------------------------------------------------------|
D ---0--------0--------0--------0--------0--------0--------0--------0--------|

Well I try to talk but I cant my soul has turned to steel
D -----2--------2---------5---------7---------2--------2--------0--------0----|
A ----0--0-----0--0------0--0------0--0------0--0-----0--0-----0--0-----0--0--|
F#---3----3---3----3----5----5---10----10---0----0---0----0---0----0---0----0-|
D ----------------------------------------------------------------------------|
A -0--------0---------0---------0---------------------------------------------|
D -----------------------------------------0--------0--------0--------0-------|

This happens every now and then when I try to tell you just how I feel
D -----2--------2---------5---------7---------2--------2--------0--------0----|
A ----0--0-----0--0------0--0------0--0------0--0-----0--0-----0--0-----0--0--|
F#---3----3---3----3----5----5---10----10---0----0---0----0---0----0---0----0-|
D ----------------------------------------------------------------------------|
A -0--------0---------0---------0---------------------------------------------|
D -----------------------------------------0--------0--------0--------0-------|

D --0--
A --0--
F#--0--
D ----- let ring
A -----
D --0--

Chorus

So if you ever love somebody
D -----------------------------------------------|
A --------0----------0-----------0----------0----|
F#-----0h1--1------1---1-------5---5------5---5--|
D ----2------2----2-----2-----0-----0----0-----0-|
A -----------------------------------------------|
D --2-----------2-----------5-----------5--------|

You gotta keep them close when you
D -----------------------------------------------|
A --------0----------0-----------0----------0----|
F#-----0h1--1------1---1-------5---5------5---5--|
D ----2------2----2-----2-----0-----0----0-----0-|
A -----------------------------------------------|
D --2-----------2-----------5-----------5--------|

When you lose grip of their body
D -----------------------------------------------|
A --------0----------0-----------0----------0----|
F#-----0h1--1------1---1-------5---5------5---5--|
D ----2------2----2-----2-----0-----0----0-----0-|
A -----------------------------------------------|
D --2-----------2-----------5-----------5--------|

Youll be falling
D ------------------------------------------------------------------------0-|
A ------0----------0------------0----------0------------0----------0------0-|
F#----8---8------7---7--------5---5------3---3-------0h1--1-----0h1--1----1-|
D ---0-----0----0-----0-----0------0----0-----0-----2------2---2------2-----|
A ------------------------------------------------------------------------0-|
D -9----------7-----------5-----------4-----------2----------2--------------|

Because Im falling
D --------------------------------------------------------------------------|
A ------0----------0------------0----------0------------0----------0------0-|
F#----8---8------7---7--------5---5------3---3-------0h1--1-----0h1--1----1-|
D ---0-----0----0-----0-----0------0----0-----0-----2------2---2------2---2-|
A --------------------------------------------------------------------------|
D -9----------7-----------5-----------4-----------2----------2------------2-|

Verse 3/Outro

Deeper in love in love
D -------7--------7--------7--------5--------4--------4--------4--------4----|
A ------0--0-----0--0-----0--0-----0--0-----0--0-----0--0-----0--0-----0--0--|
F#-----8----8---8----8---7----7---5----5---0----0---0----0---0----0---0----0-|
D ---------------------------------------------------------------------------|
A ---------------------------------------------------------------------------|
D ---0--------0--------0--------0--------0--------0--------0--------0--------|

Deeper in love in love
D -------7--------7--------7--------5--------4--------4--------4--------4----|
A ------0--0-----0--0-----0--0-----0--0-----0--0-----0--0-----0--0-----0--0--|
F#-----8----8---8----8---7----7---5----5---0----0---0----0---0----0---0----0-|
D ---------------------------------------------------------------------------|
A ---------------------------------------------------------------------------|
D ---0--------0--------0--------0--------0--------0--------0--------0--------|

Deeper in love in love
D -----2--------2---------5---------7---------2--------2--------0--------0----|
A ----0--0-----0--0------0--0------0--0------0--0-----0--0-----0--0-----0--0--|
F#---3----3---3----3----5----5---10----10---0----0---0----0---0----0---0----0-|
D ----------------------------------------------------------------------------|
A -0--------0---------0---------0---------------------------------------------|
D -----------------------------------------0--------0--------0--------0-------|

Deeper in love in love
D -----2--------2---------5---------7---------2--------2--------2--------2----|
A ----0--0-----0--0------0--0------0--0------0--0-----0--0-----0--0-----0--0--|
F#---3----3---3----3----5----5---10----10---0----0---0----0---0----0---0----0-|
D ----------------------------------------------------------------------------|
A -0--------0---------0---------0---------------------------------------------|
D -----------------------------------------0--------0--------0--------0-------|

In love in love ooooo
D ------2----            ---2p0---------+12--|
A -----0--0--            ---0----------+12---|
F#---0-----0-   x10      ---0---------+12----|
D -----------            --------------------|
A -----------            --------------------|
D --0--------            ---0----------------|

Will be recording a tutorial and acoustic version very shortly so check my YouTube mikeskinnerfh
Tap to rate this tab
# A B C D E F G H I J K L M N O P Q R S T U V W X Y Z