Song name
# A B C D E F G H I J K L M N O P Q R S T U V W X Y Z

Ryan Shupe And The Rubberband - Dream Big tab

tuning is standard but 1 fret back (Eb Ab Db Gb Bb eb)

I'm giving the chords but NOT how many times they have to be strummed...

Verse:
e|---------------------------------0------ 0------------0--------0---------|
B|---------------------------------0-------0------------0--------0---------|
G|---9-------6-----7---------------6-------4--------- --2--------2---------|
D|---9-------6-----7-----2---------6-------4------------4--------2---------|
A|---7-------4-----5-----4---------4-------2------------4--------0---------|
E|-----------------------4------------------------------2------------------|


Chorus:
e|----0------- 0-------0-----0----0--|
B|----0--------0-------0-----0----0--|
G|----1---- ---6-------4-----2----1--|
D|-- -2--------6-------4-----2----2--|
A|----2--------4-------2-----0----2--|
E|----0---------------------------0--|


Verse...

last chorus:

e|----0------- 0-------0-----0--------------------0-----0----0----0-----0---|
B|----0--------0-------0-----0--------------------0-----0----0----0-----0---|
G|----1---- ---6-------4-----2-------2 times------2-----4----6----6-----9---|
D|-- -2--------6-------4-----2--------------------2-----4----6----8-----9---|
A|----2--------4-------2-----0--------------------0-----2----4----6-----7---|
E|----0-----------------------------------------------------------------0---|
Tap to rate this tab
 
# A B C D E F G H I J K L M N O P Q R S T U V W X Y Z