Song name
# A B C D E F G H I J K L M N O P Q R S T U V W X Y Z

Ryan Star - Right Now chords

Highlighted       Show chord diagrams
Artist: Ryan Star
Song:   Right Now
Album:  11:59
Tabbed by: Sayer
Tuning: 1/2 step down

*Ryan only uses the Barred E Major as I have it written here during the verses. During 
chorus and pretty much throughout the rest of the song, itís E Major in the open position.

F Maj Ė 244XXX
D Maj  Ė X577XX
A Maj  - 577XXX
E Maj  Ė X799XX
Dsus2  Ė XX0230
Asus   - X0220X
(Open)E Maj- 022100


Verse 1:

FMaj               DMaj
Iím putting all my things in boxes,
FMaj               DMaj
Iím gonna throw it all away.
FMaj               DMaj
I think Iíve got a good idea but,
A Maj       E Maj
Who am I to say.

FMaj               DMaj
Iím burning all the things you gave me,
FMaj               DMaj
Erasing all my memories.
FMaj               DMaj
I thought you were the one to save me,
A Maj    E Maj
I was so naive.

DMaj
Iím about to lose control
              A Maj
So, Iím gonna let it go


(Chorus)

FMaj         Dsus2
Yesterday is history,
Asus             E Maj
Tomorrow may not come.
          FMaj       Dsus2
Iím gonna run to the horizon,
       Asus           E Maj
We are strong, we are young.
           FMaj       Dsus2
Iím gonnaí lay on the ground,
           Asus           E Maj
Feel the rain thatís coming down.
            FMaj      Dsus2
And thereís nothing anyone,
            Asus           E Maj
could do or say to bring me down.

FMaj Dsus2 Asus E Maj
Right Now
FMaj Dsus2 Asus E Maj
Right Now


(Palm Muted X16) F Maj


Verse 2:

FMaj               DMaj
I think its time I started over.
FMaj               DMaj
I think Iíll sail away from here.
FMaj               DMaj
Iím gonna make a great escape,
A Maj       E Maj
Now watch me disappear.

DMaj
Iím about to lose control
              A Maj
So, Iím gonna let it go

(Chorus)

FMaj         Dsus2
Yesterday is history,
Asus             E Maj
Tomorrow may not come.
          FMaj       Dsus2
Iím gonna run to the horizon,
       Asus           E Maj
We are strong, we are young.
           FMaj       Dsus2
Iím gonnaí lay on the ground,
           Asus           E Maj
Feel the rain thatís coming down.
            FMaj      Dsus2
And thereís nothing anyone,
            Asus           E Maj
could do or say to bring me down.

FMaj Dsus2 Asus E Maj
Right Now
FMaj Dsus2 Asus E Maj
Right Now


(Bridge)

---------0---------------0-----------|
-----3-----3---3-----3-----3---3-----|
---2---2-----2-----2---2-----2-------|
-0---------------0-------------------|
-------------------------------------|
-------------------------------------|

All we ever have is RightÖ.

--------------------------------------|
---------0----------------------------|
-----2-----2---2---------1------------|
---2---2-----2-------2-----2---2------|
-0-----------------2---2-----2--------|
-----------------0--------------------|

NowÖ..

---------0---------------0-----------|
-----3-----3---3-----3-----3---3-----|
---2---2-----2-----2---2-----2-------|
-0---------------0-------------------|
-------------------------------------|
-------------------------------------|

And all weíll ever need is hereÖ.

--------------------------------------|
---------0----------------------------|
-----2-----2---2---------1------------|
---2---2-----2-------2-----2---2------|
-0-----------------2---2-----2--------|
-----------------0--------------------|

Right NowÖ


Dsus2 (Palm mute, slowly pull off.)
Itís where I want to beÖ

(Chorus)

*TAP/STOMP Part (Here Ryan taps the guitar and throws in the single strum of FMaj where 
put it Ė when heís performing on stage, heíll stomp his foot instead of tapping, you can 
either to get the effect.)

Yesterday is history,
Tomorrow may not come.
          FMaj (Single Strum!)
Iím gonna run to the horizon,
                      FMaj (Single Strum!)
Like I did when I was young.


          FMaj       Dsus2
Iím gonna lay on the ground,
          Asus              E Maj
Feel the rain thatís coming down.
            F Maj       Dsus2
And thereís nothing anyone,
            Asus            E Maj
could do or say to bring me down.

FMaj Dsus2 Asus E Maj
Right Now
FMaj Dsus2 Asus E Maj
Right Now
FMaj Dsus2 Asus E Maj

Right Now
FMaj  Dsus2 (Strum X16) F Maj
Right Now
Tap to rate this tab
# A B C D E F G H I J K L M N O P Q R S T U V W X Y Z