Song name
# A B C D E F G H I J K L M N O P Q R S T U V W X Y Z

Ryan Star - Live Happy With Anorexia tab

-----------------------------------------------------------------------------
			 LIVE HAPPY WITH ANOREXIA - Ryan Star
-----------------------------------------------------------------------------
Tabbed by:wildBILL010
Email: bbill010@gmail.com
Tuning:DADGBe

This is my own way of playing this song but it sounds almost exactly like the original 
of the Stage album.
Suggestions or corrections please let me know.

            *
|----------------------------------------------|
|----------------------------------------------|
|-------------------------------2---------2----|
|-0---------2---------3-----------0------------|
|---0---0-----0---0-----0---0-------0---0------|
|-0---0---0-0---0---0-0---0---0-0-----0--------|

|----------------------------------------------|
|----------------------------------------------|
|----------------------------------------------|
|-5---------3---------2---------5---------5----|
|---3---3-----3---3-----3---3-----3---3--------|
|-3---3---3-3---3---3-3---3---3-3---3---3-3----|

|----------------------------------------------|
|----------------------------------------------|
|----------------------------------------------|
|-3---------2---------0-------------------0h2--|
                        
                    
Tap to rate this tab
 
# A B C D E F G H I J K L M N O P Q R S T U V W X Y Z