Song name
# A B C D E F G H I J K L M N O P Q R S T U V W X Y Z

Ryan Star - Losing Your Memory tab

most of the verses are this
|-------------|
|-------------|
|---------8---|
|--3-11-6-8-5-|
|--3-11-6-6-6-|
|--1-9--4-----|
just figure out the strumming

chorus and bridge are this
|-----------|
|-----------|
|---------8-|
|--8-11-6-8-|
|--8-11-6-6-|
|--6-9--4---|

peace

Nolan

Ha, I guess my tab is too short, so I'll say a hello to all of the ryan star fans out 
 His music is pretty refreshing
Tap to rate this tab
 
# A B C D E F G H I J K L M N O P Q R S T U V W X Y Z