Guitaretab - guitar tabs
Song name
# A B C D E F G H I J K L M N O P Q R S T U V W X Y Z

Ryan Tedder - Look tab

Verse (0:01)
e---------------------------------------|
b--0--1----3--1---------0--1----3--1----|
g--0--2----0--2---------0--2----0--2----|
d--0--2----0--2---------0--2----0--2----|
a-----0--0-2--0------------0--0-2--0----|
E--3------------------0-3---------------|
    

e---------------------------------------|
b--0--1----3--1-------------------------|
g--0--2----0--2-------------------------|
d--0--2----0--2-------------------------|
a-----0--0-2--0-------------------------|
E--3------------------------------------|


Riff 1 (0:17)
e---------------------------------------|
b----0-1-3-1-0--------------------------|
g----0-0-0-0-0-2------------------------|
d----0-0-0-0-0-0------------------------|
a------0-2-0----------------------------|
E--0-3-------3-2------------------------|


Chorus (0:23)
e--3--3---------------------------------|
b--3--1---------------------------------|
g-----0-----2--2----0-------------------|
d-----------0--0----0-------------------|
a---------0-----------------------------|
E--3--------2--2----3-------------------|
    

Chorus
e--3--3---------------------------------|
b--3--1---------------------------------|
g-----0-----2--2----0-------------------|
d-----------0--0----0-------------------|
a---------0-----------------------------|
E--3--------2--2----3-------------------|


Chorus
e--3--3---------------------------------|
b--3--1---------------------------------|
g-----0-----2--2----0-------------------|
d-----------0--0----0-------------------|
a---------0-----------------------------|
E--3--------2--2----3-------------------|


Riff 1 (0:39)
e---------------------------------------|
b----0-1-3-1-0--------------------------|
g----0-0-0-0-0-2------------------------|
d----0-0-0-0-0-0------------------------|
a------0-2-0----------------------------|
E--0-3-------3-2------------------------|



Riff 2 (0:43)
e---------------------------------------------------------|
b------0------0--0-0h1-0-----------0---------------------|
g------0------0--0---------0--------0---------------------|
d------0------0--0-----------0------0---------------------|
a---------------------------------------------------------|
E--0-3---3h2-----0-------------0h2--2---------------------|
           
----------------------------------------------------------|
---0-0h1-0-----------0----0-0h1-0------------0------------|
---0-------0---------0----0-------0----------0------------|
---0---------0-------0----0---------0--------0------------|
----------------------------------------------------------|
---3------------0h2--2----3------------0h2---2------------|


Verse (0:55)
e---------------------------------------|
b--0--1----3--1---------0--1----3--1----|
g--0--2----0--2---------0--2----0--2----|
d--0--2----0--2---------0--2----0--2----|
a-----0--0-2--0------------0--0-2--0----|
E--3------------------0-3---------------|


e---------------------------------------|
b--0--1----3--1-------------------------|
g--0--2----0--2-------------------------|
d--0--2----0--2-------------------------|
a-----0--0-2--0-------------------------|
E--3------------------------------------|


Riff 1 (1:10)
e---------------------------------------|
b----0-1-3-1-0--------------------------|
g----0-0-0-0-0-2------------------------|
d----0-0-0-0-0-0------------------------|
a------0-2-0----------------------------|
E--0-3-------3-2------------------------|


Chorus (1:16)
e--3--3---------------------------------|
b--3--1---------------------------------|
g-----0-----2--2----0-------------------|
d-----------0--0----0-------------------|
a---------0-----------------------------|
E--3--------2--2----3-------------------|
    
[ Tab from: http://www.guitaretab.com/r/ryan-tedder/51740.html ]
Chorus
e--3--3---------------------------------|
b--3--1---------------------------------|
g-----0-----2--2----0-------------------|
d-----------0--0----0-------------------|
a---------0-----------------------------|
E--3--------2--2----3-------------------|


Chorus
e--3--3---------------------------------|
b--3--1---------------------------------|
g-----0-----2--2----0-------------------|
d-----------0--0----0-------------------|
a---------0-----------------------------|
E--3--------2--2----3-------------------|


Riff 1 (1:31)
e---------------------------------------|
b----0-1-3-1-0--------------------------|
g----0-0-0-0-0-2------------------------|
d----0-0-0-0-0-0------------------------|
a------0-2-0----------------------------|
E--0-3-------3-2------------------------|


1st Bridge (1:37)
e---------------------------------------------------------2~----|
b---1-1----3-3----1-1--------0----1-1------3x-3------1-1-3~----|
g---0-0----0-0----0-0----2-2-0----0-0------0x-0------0-0--2~----|
d---2-2----0-0----0-0----0-0-0----2-2------0x-0------0-0--------|
a--3-3--0-2-2--0-1-1-------------0-3-3--0-2x-2----0-1-1--------|
E----------------------0-2-2-3----------------------------------|
     

Chorus (2:00)
e--3--3---------------------------------|
b--3--1---------------------------------|
g-----0-----2--2----0-------------------|
d-----------0--0----0-------------------|
a---------0-----------------------------|
E--3--------2--2----3-------------------|
    

Chorus
e--3--3---------------------------------|
b--3--1---------------------------------|
g-----0-----2--2----0-------------------|
d-----------0--0----0-------------------|
a---------0-----------------------------|
E--3--------2--2----3-------------------|


Chorus
e--3--3---------------------------------|
b--3--1---------------------------------|
g-----0-----2--2----0-------------------|
d-----------0--0----0-------------------|
a---------0-----------------------------|
E--3--------2--2----3-------------------|


Riff 1 (2:15)
e---------------------------------------|
b----0-1-3-1-0--------------------------|
g----0-0-0-0-0-2------------------------|
d----0-0-0-0-0-0------------------------|
a------0-2-0----------------------------|
E--0-3-------3-2------------------------|


Chorus (2:21)
e--3--3---------------------------------|
b--3--1---------------------------------|
g-----0-----2--2----0-------------------|
d-----------0--0----0-------------------|
a---------0-----------------------------|
E--3--------2--2----3-------------------|
    

Chorus
e--3--3---------------------------------|
b--3--1---------------------------------|
g-----0-----2--2----0-------------------|
d-----------0--0----0-------------------|
a---------0-----------------------------|
E--3--------2--2----3-------------------|


Chorus
e--3--3---------------------------------|
b--3--1---------------------------------|
g-----0-----2--2----0-------------------|
d-----------0--0----0-------------------|
a---------0-----------------------------|
E--3--------2--2----3-------------------|


Riff 1 (2:38)
e---------------------------------------|
b----0-1-3-1-0--------------------------|
g----0-0-0-0-0-2------------------------|
d----0-0-0-0-0-0------------------------|
a------0-2-0----------------------------|
E--0-3-------3-2------------------------|



Riff 2 (2:51) till fade out
e---------------------------------------------------------|
b------0------0--0-0h1-0-----------0---------------------|
g------0------0--0---------0--------0---------------------|
d------0------0--0-----------0------0---------------------|
a---------------------------------------------------------|
E--0-3---3h2-----0-------------0h2--2---------------------|
           
----------------------------------------------------------|
---0-0h1-0-----------0----0-0h1-0------------0------------|
---0-------0---------0----0-------0----------0------------|
---0---------0-------0----0---------0--------0------------|
----------------------------------------------------------|
---3------------0h2--2----3------------0h2---2------------|

Related for Look tab