Song name
# A B C D E F G H I J K L M N O P Q R S T U V W X Y Z

Ryashon - Mortal Kombat tab

-------------------------------------------------------------------------------
	                              Mortal Kombat - Ryashon
-------------------------------------------------------------------------------

Tabbed by EdurokrGH
Tuning: E A D G B e (Standard)

Intro 

Rhythm Guitar (Clean)
e|-------------0---------0---3---0-------------------------------------|
B|-----1---3-----3---1-1---1---1---1-----------------------------------|
G|-2-2---2---2------------------------0-0-4-0-5-0-7-5------2---5---5-4-|(X2)
D|-----------------------------------------------------3-3---3---3-----|
A|---------------------------------------------------------------------|
E|---------------------------------------------------------------------|

Lead Guitar (Clean)
e|-----------------------------------------------------------------------|
B|-----------------------------------------------------------------------|
G|-----------------------------------------------------------------------|
D|----13h14~~10h12~~--------------------13h14~~10h12~~17p15p14-15-14-12--|
A|-12---------------14--15-14-12--10h12----------------------------------|
E|-----------------------------------------------------------------------|

MORTAL KOMBAT!!!

Both Guitars with Distortion

Part A

Both Guitars

e|----------------------------------------------------------|
B|----------------------------------------------------------|
G|----------------------------------------------------------|
D|----------------------------------------------------------|
A|------------3-------------------------3-------------------|
E|-5-5-5-5--3---5-5-5-5--3-0-5-5-5-5--3---5-5--3-3--3-5-5---|

e|----------------------------------------------------------|
B|----------------------------------------------------------|
G|------------5--------------------------5------------------|
D|-7-7-7-7--5-5--7-7-7-7--5-2--7-7-7-7-5-5--7-7--5-5--5-7-7-|
A|-7-7-7-7--5-3--7-7-7-7--5-2--7-7-7-7-5-3--7-7--5-5--5-7-7-|
E|-5-5-5-5--3----5-5-5-5--3-0--5-5-5-5-3----5-5--3-3--3-5-5-|

Part B (X2)

Both Guitars

e|------------------------|          e|---------------------|
B|------------------------|(X3)      B|---------------------|
G|------------------------| And      G|---------------------|
D|------------------------| Then...  D|---------------------|
A|---7--------------------|          A|---7-----------------|
E|-5---5-8-5-6-5-8-5-6-3--|          E|-5---5-8-3-3--3-5-5--|

Fill

Both Guitars

e|--------------|
B|--------------|
G|--------------|
D|-7--7--7--7---|
A|-7--7--7--7---|
E|-5--5--5--5---|

Part C 

Rhythm Guitar 

e|--------------|
B|--------------|
G|--------------|(X16)
D|-7-7-7--5--2--|
A|-7-7-7--5--2--|
E|-5-5-5--3--0--|

Lead Guitar

e|--------------|
B|--------------|
G|--------------|(X8)
D|-7-7-7--5--2--|
A|-7-7-7--5--2--|
E|-5-5-5--3--0--|

The lead guitar makes the same part of the rhythm guitar, only 8 times. Then this makes 8 times...

e|--------------|
B|--------------|
G|--------------|(X8)
D|--------------|
A|--7-0-5-0-----|
E|--------------|

Part D

Rhythm Guitar

e|----------------------------------------------------------|
B|----------------------------------------------------------|
G|----------------------------------------------------------|
D|----------------------------------------------------------|
A|------------3-------------------------3-------------------|
E|-5-5-5-5--3---5-5-5-5--3-0-5-5-5-5--3---5-5--3-3--3-5-5---|

Lead Guitar

e|-------------0---------0---3---0-------------------------------------|
B|-----1---3-----3---1-1---1---1---1-----------------------------------|
G|-2-2---2---2------------------------0-0-4-0-5-0-7-5------2---5---5-4-|(X2)
D|-----------------------------------------------------3-3---3---3-----|
A|---------------------------------------------------------------------|
E|---------------------------------------------------------------------|
Pm * *   *   *       * *   *   *   *  * *   *   *      * *   *   *  

Part B Again (X2)

Rhythm Guitar

e|------------------------|          e|---------------------|
B|------------------------|(X3)      B|---------------------|
G|------------------------| And      G|---------------------|
D|------------------------| Then...  D|---------------------|
A|---7--------------------|          A|---7-----------------|
E|-5---5-8-5-6-5-8-5-6-3--|          E|-5---5-8-3-3--3-5-5--|

Lead Guitar

e|----------------------------|        e|---------------------------|
B|----------------------------|(X3)    B|---------------------------|
G|----------------------------| And    G|---------------------------|
D|-----9----------------------| Then...D|-----9---------------------|
A|---7---7-10-7-8-7-10-7-8-5--|        A|---7---7-10-5-5--5-7-7-----|
E|----------------------------|        E|---------------------------|

Part C Again

Rhythm Guitar 

e|--------------|
B|--------------|
G|--------------|(X16)
D|-7-7-7--5--2--|
A-7-7-7--5--2--|
E|-5-5-5--3--0--|

Lead Guitar

e|--------------|
B|--------------|
G|--------------|(X8)
D|-7-7-7--5--2--|
A|-7-7-7--5--2--|
E|-5-5-5--3--0--|

The lead guitar makes the same part of the rhythm guitar, only 8 times. Then this makes 8 times...

e|--------------|
B|--------------|
G|--------------|(X8)
D|--------------|
A|--7-0-5-0-----|
E|--------------|

Part E

Both Guitars

e|---------------------------------------------------------------|
B|---------------------------------------------------------------|
G|------4---------5---------7---------9--------------12----------|
D|--2---------2---------5---------7-------7-----10--------10-----|
A|----0---------0---------3---------5-------5------8---------8---|
E|---------------------------------------------------------------|

Part F (X2)

Both Guitars

e|----------------------------------------------------|
B|----------------------------------------------------|
G|-----------------------5----------------------------|
D|-7-7--7-7--7-7--7-7--5-5--7-7--7-7--7-7--7-7--5-2---|
A|-7-7--7-7--7-7--7-7--5-3--7-7--7-7--7-7--7-7--5-2---|
E|-5-5--5-5--5-5--5-5--3----5-5--5-5--5-5--5-5--3-0---|
Pm * *  * *  * *  * *  *    * *  * *  * *  * *  * * 

e|----------------------------------------------------|
B|----------------------------------------------------|
G|-----------------------5----------------------------|
D|-7-7--7-7--7-7--7-7--5-5--7-7--7-7--5-5--5-7-7------|
A|-7-7--7-7--7-7--7-7--5-3--7-7--7-7--5-5--5-7-7------|
E|-5-5--5-5--5-5--5-5--3----5-5--5-5--3-3--3-5-5------|
Pm * *  * *  * *  * *  *    * *  * *  * *  * * *  

Part G (X2)

This is all Tremolo Picking, but i'm just going to show what frets to play...

Rhythm Guitar (Tremolo Picking)

e|---------------------------------|
B|---------------------------------|
G|---------------------------------|(X2)
D|----------------------7/10--7/9--|
A|--3--2--0---7-8-7--5-------------|
E|---------------------------------|

Lead Guitar (Tremolo Picking)

e|-----------------------------------|
B|-----------------------------------|
G|-----------------------------------|(X2)
D|-------------------------7/9--5/7--|
A|--7--5--3---10-12-10--8------------|
E|-----------------------------------|

Outro

Rhythm Guitar (Clean)

e|-------------0---------0---3---0-------------------------------------|
B|-----1---3-----3---1-1---1---1---1-----------------------------------|
G|-2-2---2---2------------------------0-0-4-0-5-0-7-5------2---5---5-4-|(X2)
D|-----------------------------------------------------3-3---3---3-----|
A|---------------------------------------------------------------------|
E|---------------------------------------------------------------------|

Lead Guitar (Clean)

e|-10-10h12-10h12p10--8-7-7h8p7-----------------------------------|
B|------------------------------8---------------------------------|
G|--------------------------------7~~-9-7-------------------------|
D|----------------------------------------10-9-10-9-10p9p7----7---|
A|---------------------------------------------------------10-----|
E|----------------------------------------------------------------|

e|-----------------------------------------------|
B|--------------------------------------------0--|
G|--------------------------------------------2--|
D|--------------------------------------------2--|
A|------7-8-10-10/12-10----7-5---5-5/7-5------0--|
E|-8-10------------------------8---------8\7-----|

Thanks for playing, hope this could help, comment and rate please...

EduardoRokr XD.

************************************
| /   slide up
| \   slide down
| h   hammer-on
| p   pull-off
| ~   vibrato
| *   palm mutting
************************************
Tap to rate this tab
 
# A B C D E F G H I J K L M N O P Q R S T U V W X Y Z