Song name
# A B C D E F G H I J K L M N O P Q R S T U V W X Y Z

Ryuichi Sakamoto - Merry Christmas Mr Lawrence tab

Hello! This is my first tab, and I am 5% sure that this is a good way to play
Ryuichi Sakamoto's "Merry Chritmas Mr. Lawrence."
Please be gentle, I'm new.
I also understand that this is a incomplete tab, and I hope to finish it and post it up 
on this wonderful website.

Ryuichi Sakamoto - Merry Christmas Mr. Lawrence:
http://www.youtube.com/watch?v=5mfyCI82lWM

-----------------------------------------------------------------------------
			 Merry Christmas Mr. Lawrence
-----------------------------------------------------------------------------
Tabbed by: Calvin T.
Email: shootercal100@gmail.com

Tuning: EADGBe (Standard)





	x2		x2        	x2		x2
E|-5------5--------3------3--------3------3-------0------0-------------------|
B|-5----5---5------5----5----5-----3----3---3-----0----0---0-----------------|
G|-7--7-------7----7--7--------7---5--5-------5---2--2-------2---------------|
D|-7---------------7---------------3--------------2--------------------------|
A|---------------------------------------------------------------------------|
E|---------------------------------------------------------------------------|
	x2		x2        		x2
E|-5------5--------3------3--------3------7------3-----7---------------------|
B|-5----5---5------5----5----5-----3----3---3------3-----3-------------------|
G|-7--7------------7--7--------7---5--5-------5------5-----5-----------------|
D|-7---------------7---------------3-----------------------------------------|
A|---------------------------------------------------------------------------|
E|---------------------------------------------------------------------------|

E |---0--------------0-----0--3-----3-----------0----------------8--7--3----|
B |-3---3---3--3--3-----3--------5-----5-----3-----3-----1----------------5-|
G |-2-----2----0-----------------------------2--------2---------------------|
D |-0----------0-----------------------------0----------------7-------------|
A |-3----------0-----------------------------3----------------7-------------|
E |------------3----------------------------------------------5-------------|


************************************

| /   slide up
| \   slide down
| h   hammer-on
| p   pull-off
| ~   vibrato
| +   harmonic
| x   Mute note
| b   Bend
| pb  Pre-bend
| br  Bend release
| pbr Pre-bend release
| brb Bend release bend

************************************
Tap to rate this tab
# A B C D E F G H I J K L M N O P Q R S T U V W X Y Z