Song name
# A B C D E F G H I J K L M N O P Q R S T U V W X Y Z

Rza - We Pop tab

Well the whole song is pretty much 2 riffs that repeat throughout the song... Standard Tuning

e -----------------7-10-9------------------------------|
B -----------------------------------------------------|
G -----------------------------------------------------|
D -----------------------------------------------------|
A -----4-4-4-2-0---------------------------------------|
E -2-2-----------2-------------------------------------|

e -----------------10-7-9------------------------------|
B -----------------------------------------------------|
G -----------------------------------------------------|
D -----------------------------------------------------|
A -----4-4-4-2-0---------------------------------------|
E -2-2-----------2-------------------------------------|

Thats it. Pretty catchy and kinda fun to play.
Tap to rate this tab
# A B C D E F G H I J K L M N O P Q R S T U V W X Y Z