Song name
# A B C D E F G H I J K L M N O P Q R S T U V W X Y Z

S Carey - Fire-scene tab

-------------------------------------------------------------------------------
                             Fire-Scene - S. Carey
-------------------------------------------------------------------------------

http://scarey.org/

Tabbed by: Amin Mesbah
E-mail: mesbah[dot]amin[at]gmail[dot]com

Tuning: Standard
Capo 3


*****


GUITAR I

Verse:
e|----------------|----------------|----------------|----------------|
B|-3--3--3--3--3--|-3--3--3--3--3--|-3--3--3--3--3--|-3--3--3--3--3--|
G|--0--00-0--00-0-|--0--00-0--00-0-|--0--00-0--00-0-|--0--00-0--00-0-|
D|---4-----4-----4|---4-----4-----4|---4-----4-----4|---4-----4-----4|
A|2---------------|2---------------|0---------------|0---------------|
E|----------------|----------------|----------------|----------------|

e|----------------|----------------|-------|----------------|----------------|
B|-3--3--3--3--3--|-3--3--3--3--3--|-3--3--|-3--3--3--3--3--|-3--3--3--3--3--|
G|--0--00-0--00-0-|--0--00-0--00-0-|--0--00|--0--00-0--00-0-|--0--00-0--00-0-|
D|---4-----4-----4|---4-----4-----4|---4---|---4-----4-----4|---4-----4-----4|
A|----------------|----------------|2------|0---------------|0---------------|
E|0---------------|0---------------|-------|----------------|----------------|

Chorus:
e|----------------|----------------|-------|----------------|
B|-3--3--3--3--3--|-3--3--3--3--3--|-3--3--|-3--3--3--3--3--|
G|--0--00-0--00-0-|--0--00-0--00-0-|--0--00|--0--00-0--00-0-|
D|---4-----4-----4|---4-----4-----4|---4---|---4-----4-----4|
A|----------------|----------------|2------|0---------------|
E|3---------------|0---------------|-------|----------------|


GUITAR II

Play this for literally the whole song:
e|----------------|
B|3-3-3-3-3-3-3-3-|
G|-7-7-7-7-7-7-7-7|
D|----------------|
A|----------------|
E|----------------|


GUITAR III (harmonics)

Play during Chorus 1 and 2 (Chorus 1=x8. Chorus 2=x11):
e<12>-------------|
B|--<7>-----------|
G|----------------|
D|-----------<12>-|
A|-----<5><7>-----|
E|----------------|


PADDED DRUM

Comes in on the second verse. Repeats until the end:
|xx-xx-xx-xx-x-x-|


*****


-Intro (verse x2)-

-Verse-
The city's fire
Trapped behind the earth
Digging in your deepest dirt

-Verse-
The reddest hue
Reminds you of you
Clinging love and falling true

-Chorus (x2)-
On and On
All I want is honesty

-Verse-
Tree has snapped
Sparks are flying everywhere
Cables burnt and lines flare

-Verse-
And when the all in all 
Comes falling down
It was just an accident
Something you can't help

-Chorus (x3)-
On and On
All I want is honesty

-Outro (chorus x3)-


*****


Enjoy! Please suggest any corrections :)


*****
Tap to rate this tab
# A B C D E F G H I J K L M N O P Q R S T U V W X Y Z