Song name
# A B C D E F G H I J K L M N O P Q R S T U V W X Y Z

S Castro - Wir Werden Sein tab

-------------------------------------------------------------------------------
                             WIR WERDEN SEIN(prod. by Gorex) - S. Castro
-------------------------------------------------------------------------------
Tabbed by: zaghdoudi
E-mail: halim.zag@gmx.de

Youtube video of the song: http://www.youtube.com/watch?v=4K4JD9NQAo8


Basically it's just this one arpeggio which is played throughout the whole
song, besides a few fill ins in a Spanish-sounding scale, which i might
figure out later.
Anyway, it's my first submitted tab, enjoy playing :)

Overall harmonics should be
E5
E5
E5/C
E5/B7

Tuning: Standard

e|--------------0------------------------0----------------------------------------|
B|-----------------0------------------------0-------------------------------------|
G|-----------9--------9---------------9--------9----------------------------------|
D|--------9--------------9---------9--------------9-------------------------------|
A|-----7------------------------7-------------------------------------------------|
E|--0------------------------0----------------------------------------------------|

e|--------------0------------------------0----------------------------------------|
B|-----------------0------------------------0-------------------------------------|
G|-----------9--------9---------------9--------9----------------------------------|
D|--------9--------------9---------9--------------9-------------------------------|
A|-----7------------------------7-------------------------------------------------|
E|--0------------------------0----------------------------------------------------|

e|--------------0------------------------0----------------------------------------|
B|-----------------0------------------------0-------------------------------------|
G|-----------9--------9---------------9-------------------------------------------|
D|--------9--------------9---------9----------------------------------------------|
A|-----7------------------------7-------------------------------------------------|
E|--8------------------------8----------------------------------------------------|

e|--------------0------------------------0----------------------------------------|
B|-----------------0------------------------0-------------------------------------|
G|-----------9--------9---------------9--------9----------------------------------|
D|--------9--------------9---------9--------------9-------------------------------|
A|-----0------------------------0-------------------------------------------------|
E|--7------------------------7----------------------------------------------------|


************************************
Tap to rate this tab
 
# A B C D E F G H I J K L M N O P Q R S T U V W X Y Z