Song name
# A B C D E F G H I J K L M N O P Q R S T U V W X Y Z

S Club 7 - I Really Miss You tab

-------------------------------------------------------------------------------
		  I Really Miss You-S Club 7 (Rachel's solo)
-------------------------------------------------------------------------------
Tabbed by: Fweeky
Email: freaky_weekender@hotmail.com

Tuning: standard


e|---2--5--3--|---2--3p2--0--|--2--5--3-|--------5---|
B|---3-----0--|---3-------2--|--3-----0-|--------5---|
G|---2-----0--|---2-------2--|--2-----0-|----7---5---|
D|------------|--------------|----------|-7------8---|
A|------------|--------------|----------|------------|
E|------------|--------------|----------|------------|
                                          +  +
Tap to rate this tab
 
# A B C D E F G H I J K L M N O P Q R S T U V W X Y Z