Song name
# A B C D E F G H I J K L M N O P Q R S T U V W X Y Z

S - 5 Dollers tab

-------------------------------------------------------------------------------
			     S - 5 Dollers
-------------------------------------------------------------------------------
Tabbed by: ivadell
Email: sadstyle36@hotmail.com

Tuning: Standard, Capo 1

Verse
e|------------------------------------------------------------------------|
B|------------------------------------------------------------------------|
G|------0-------------------7-------------------0-------------------------|
D|---10---10---10--------10---10---0----------5---5---0-----------0-----0-|
A|-8---------8---------0---------0----------3-------3-----------5---5-----|
E|------------------------------------------------------------3-------3---|

Chorus
e|------------------------------------------------------------------------|
B|------------------------------------------------------------------------|
G|------12-------------------9-----------------0----------------0---------|
D|---10----10---10--------10---10---0--------5---5---0--------0---0---0---|
A|-8----------8---------0---------0--------3-------3----------------------|
E|-8--------------------------------------------------------3-------3-----|

Final
e|--------------------------------------|
B|--------------------------------------|
G|--------------------------------------|
D|-10----12----7----5---10-----12----7--|
A|--8----10----0----0----8-----10----0--|
E|--8----10----5----3----8-----10----5--|

http://www.facebook.com/pages/S-jenn-ghetto/233715690328
Tap to rate this tab
 
# A B C D E F G H I J K L M N O P Q R S T U V W X Y Z