Song name
# A B C D E F G H I J K L M N O P Q R S T U V W X Y Z

Sabaton - Panzer Battalion tab

Panzer Battalion - Sabaton

Not tabbed by me, i've just exported from Guitar Pro, because someone requested it.
Tabbed by: cool_rom (http://profile.ultimate-guitar.com/cool_rom/)


Lead Guitar

  E  S S E  E  S S E  S S E     E  S S E  E  S S E  S S E   
------------1------0---------|------------1----------------|
--3--x-x-x--x--x-x-x--x-x-3--|--3--x-x-x--x--x-x-5--x-x-3--|
--2--x-x-x--x--x-x-x--x-x-x--|--3--x-x-x--x--x-x-x--x-x-x--|
--0--0-0-0--0--0-0-0--0-0-0--|--3--3-3-3--3--3-3-3--3-3-3--|
-----------------------------|--1-----------------------L--|
-----------------------------|-----------------------------|


  E  S S E  E  S S E  S S E     E  S S E  E  E  E  Q     
------------3----------------|------------------0-------|
--5--x-x-x--x--x-x-6--x-x-5--|--2--x-x-x--3-----x-------|
--5--x-x-x--x--x-x-x--x-x-x--|--2--x-x-x--x-----x-------|
--5--5-5-5--5--5-5-5--5-5-5--|--2--2-2-2--2-----2-------|
--3-----------------------L--|--0------------------L----|
-----------------------------|--------------------------|


  E  S S E  E  S S E  S S E     E  S S E  E  S S E  S S E   
------------1------0---------|------------1----------------|
--3--x-x-x--x--x-x-x--x-x-3--|--3--x-x-x--x--x-x-5--x-x-3--|
--2--x-x-x--x--x-x-x--x-x-x--|--3--x-x-x--x--x-x-x--x-x-x--|
--0--0-0-0--0--0-0-0--0-0-0--|--3--3-3-3--3--3-3-3--3-3-3--|
-----------------------------|--1-----------------------L--|
-----------------------------|-----------------------------|


  E  S S E  E  S S E  S S E   
------------3----------------|
--5--x-x-x--x--x-x-6--x-x-5--|
--5--x-x-x--x--x-x-x--x-x-x--|
--5--5-5-5--5--5-5-5--5-5-5--|
--3-----------------------L--|
-----------------------------|


   S  S  S  S  S  S  S  S  S  S  S  S  S  S  S  S  
--15-13-12----------------12-13-15-13-12-13-15-13-|
-----------15-14----------------------------------|
-----------------15-14-12-------------------------|
--------------------------------------------------|
--------------------------------------------------|
--------------------------------------------------|


   Q.       Q.         E   E      Q     H            E   E   
--15b------15pbr------13--12--|--13----12brb----------------|
------------------------------|---------------------15--13--|
------------------------------|-----------------------------|
------------------------------|-----------------------------|
------------------------------|-----------------------------|
------------------------------|-----------------------------|

   Q        S  S  Q    E   S  S  S  S  
--------------------------------------|
--13pbr-------------------------------|
-----------14-12-14----L--12----12----|
-----------------------------15----14-|
--------------------------------------|
--------------------------------------|

   might be tapping...                   
   Q.                  Q     E   E   E   
----------------------------------------|
----------------------------------------|
----------------------------------------|
--15b-----------------14----15--14------|
------------------------------------15--|
----------------------------------------|


   H.            Q        S  S S  S  S  S  S  S  S  S  S  S  S  E   S   
-----------------------|-----------------------------------------------|
-----------------------|-----------------------------------------------|
-----------------------|---------------------------------12-12-12------|
--12~------------L\----|------------------10-12-12-14-15-----------15b-|
-----------------------|-------8-10-10-12------------------------------|
-----------------------|--8-10-----------------------------------------|


                             |---3---|                                 
   S   S  S   S  S  S  S  S  E   E   E   E   E      W                  
------------------------------------12--13--15--|--15b----------------|
----------------------------14--15--------------|---------------------|
--12b-12-12b-12----12-14-15---------------------|---------------------|
----------------15------------------------------|---------------------|
------------------------------------------------|---------------------|
------------------------------------------------|---------------------|


    W                   W                   W                 
|--------------------|-------------------|-------------------|
|--------------------|-------------------|-------------------|
|*-------------------|-------------------|-------------------|
|*-------------------|-------------------|-------------------|
|--------------------|-------------------|-------------------|
|--------------------|-------------------|-------------------|


  W                 4x  E  Q.     E  Q.        Q    Q    Q    Q     
--------------------||----------------------|----------------------|
--------------------||----------------------|----------------------|
-------------------*||--2---------2---------|--3----2----0----3----|
-------------------*||----------------------|----------------------|
--------------------||----------------------|----------------------|
--------------------||----------------------|----------------------|


  E  Q.     E  Q.        E  E  E  E  E  E  E  E     E  Q.     E  Q.      
----------------------|--------------------------|----------------------|
----------------------|--------2--3--2-----------|----------------------|
--2---------2---------|--2--3-----------3--2--0--|--2---------2---------|
----------------------|--------------------------|----------------------|
----------------------|--------------------------|----------------------|
----------------------|--------------------------|----------------------|


  Q    Q    Q    Q       H        H           H        H         
----------------------|--------------------|--------------------|
----------------------|--------------------|--------------------|
--3----2----0----3----|--3--------3--------|--5--------5--------|
----------------------|--------------------|--------------------|
----------------------|--------------------|--------------------|
----------------------|--------------------|--------------------|


    E  S S E  E  S S E  S S E     E  S S E  E  S S E  S S E   
|-------------1------0---------|------------1----------------|
|---3--x-x-x--x--x-x-x--x-x-3--|--3--x-x-x--x--x-x-5--x-x-3--|
|*--2--x-x-x--x--x-x-x--x-x-x--|--3--x-x-x--x--x-x-x--x-x-x--|
|*--0--0-0-0--0--0-0-0--0-0-0--|--3--3-3-3--3--3-3-3--3-3-3--|
|------------------------------|--1-----------------------L--|
|------------------------------|-----------------------------|


  E  S S E  E  S S E  S S E     E  S S E  E  S S E  S S E   3x
------------3----------------|-------------------0----------||
--5--x-x-x--x--x-x-6--x-x-5--|--2--x-x-x--3--x-x-x--x-x-----||
--5--x-x-x--x--x-x-x--x-x-x--|--2--x-x-x--x--x-x-x--x-x-2--*||
--5--5-5-5--5--5-5-5--5-5-5--|--2--2-2-2--2--2-2-2--2-2-2--*||
--3-----------------------L--|--0-----------------------L---||
-----------------------------|------------------------------||


  E  S S E  E  S S E  S S E     E  S S E  E  S S E  S S E   
-----------------------------|-----------------------------|
-----------------------------|-----------------------------|
--2--x-x-x--2--x-x-2--x-x-2--|--5--x-x-x--5--x-x-7--x-x-7--|
--0--0-0-0--0--0-0-0--0-0-0--|--5--x-x-x--x--x-x-x--x-x-x--|
-----------------------------|--5--5-5-5--5--5-5-5--5-5-5--|
-----------------------------|--3-----------------------L--|


  E  S S E  E  S S E  S S E     W                     W                 
-----------------------------|-------------------||--------------------|
-----------------------------|-------------------||--------------------|
--6--x-x-x--9--x-x-7--x-x-6--|--7----------------||*-------------------|
--7--x-x-x--x--x-x-x--x-x-x--|--7----------------||*-------------------|
--7--7-7-7--7--7-7-7--7-7-7--|--5----------------||--------------------|
--5-----------------------L--|-------------------||--------------------|


  W                   W                   W                 4x
-------------------|-------------------|--------------------||
-------------------|-------------------|--------------------||
-------------------|-------------------|-------------------*||
-------------------|-------------------|-------------------*||
-------------------|-------------------|--------------------||
-------------------|-------------------|--------------------||


  E  Q.     E  Q.        Q    Q    Q    Q       E  Q.     E  Q.      
----------------------|----------------------|----------------------|
----------------------|----------------------|----------------------|
--2---------2---------|--3----2----0----3----|--2---------2---------|
----------------------|----------------------|----------------------|
----------------------|----------------------|----------------------|
----------------------|----------------------|----------------------|


  E  E  E  E  E  E  E  E     E  Q.     E  Q.        Q    Q    Q    Q     
--------------------------|----------------------|----------------------|
--------2--3--2-----------|----------------------|----------------------|
--2--3-----------3--2--0--|--2---------2---------|--3----2----0----3----|
--------------------------|----------------------|----------------------|
--------------------------|----------------------|----------------------|
--------------------------|----------------------|----------------------|


  H        H           H        H             E  S S E  E  S S E  S S E   
--------------------|--------------------||-------------1------0---------|
--------------------|--------------------||---3--x-x-x--x--x-x-x--x-x-3--|
--3--------3--------|--5--------5--------||*--2--x-x-x--x--x-x-x--x-x-x--|
--------------------|--------------------||*--0--0-0-0--0--0-0-0--0-0-0--|
--------------------|--------------------||------------------------------|
--------------------|--------------------||------------------------------|


  E  S S E  E  S S E  S S E     E  S S E  E  S S E  S S E   
------------1----------------|------------3----------------|
--3--x-x-x--x--x-x-5--x-x-3--|--5--x-x-x--x--x-x-6--x-x-5--|
--3--x-x-x--x--x-x-x--x-x-x--|--5--x-x-x--x--x-x-x--x-x-x--|
--3--3-3-3--3--3-3-3--3-3-3--|--5--5-5-5--5--5-5-5--5-5-5--|
--1-----------------------L--|--3-----------------------L--|
-----------------------------|-----------------------------|


  E  S S E  E  S S E  S S E   3x  E  S S E  E  S S E  S S E   
-------------------0----------||-----------------------------|
--2--x-x-x--3--x-x-x--x-x-----||-----------------------------|
--2--x-x-x--x--x-x-x--x-x-2--*||--2--x-x-x--2--x-x-2--x-x-2--|
--2--2-2-2--2--2-2-2--2-2-2--*||--0--0-0-0--0--0-0-0--0-0-0--|
--0-----------------------L---||-----------------------------|
------------------------------||-----------------------------|


  E  S S E  E  S S E  S S E     E  S S E  E  S S E  S S E   
-----------------------------|-----------------------------|
-----------------------------|-----------------------------|
--5--x-x-x--5--x-x-7--x-x-7--|--6--x-x-x--9--x-x-7--x-x-6--|
--5--x-x-x--x--x-x-x--x-x-x--|--7--x-x-x--x--x-x-x--x-x-x--|
--5--5-5-5--5--5-5-5--5-5-5--|--7--7-7-7--7--7-7-7--7-7-7--|
--3-----------------------L--|--5-----------------------L--|


  W                  
-------------------||
-------------------||
--7----------------||
--7----------------||
--5----------------||
-------------------||





Rhytm Guitar

  E  Q    E  E  E  E  E     E  H        E  E  E     E  H        E  E  E   
----------------0-----0--|-----------------------|-----------------------|
--2-------3-----2-----2--|--------------------6--|--------------5-----3--|
--2-------2-----2-----2--|--7-----------7-----7--|--3-----------3-----3--|
--2-------2-----2-----2--|--7-----------7-----7--|--3-----------3-----3--|
--0-------0-----0-----0--|--5-----------5-----5--|--1-----------1-----1--|
-------------------------|-----------------------|-----------------------|


  E  H.           E     E  Q    E  E  E  Q       Q    E  Q    E  E  E   
---------------------|----------------0--L----|------------------------|
--5------------------|--2--L----3--L--2--L----|------------------------|
--5------------------|--2--L----2--L--2--L----|--7----7--7----7--7--7--|
--5------------------|--2--L----2--L--2--L----|--7----7--7----7--7--7--|
--3------------------|--0--L----0--L--0--L----|--5----5--5----5--5--5--|
---------------------|------------------------|------------------------|


  Q    E  Q    E  E  E     Q    E  Q    E  E  E     Q    E  Q    E  E  E   
------------------------|------------------------|------------------------|
------------------------|------------------------|------------------------|
--3----3--3----3--3--3--|--5----5--5----5--5--5--|--2----2--2----2--2--2--|
--3----3--3----3--3--3--|--5----5--5----5--5--5--|--2----2--2----2--2--2--|
--1----1--1----1--1--1--|--3----3--3----3--3--3--|--0----0--0----0--0--0--|
------------------------|------------------------|------------------------|


  Q    E  Q    E  E  E     Q    E  Q    E  E  E     Q    E  Q    E  E  E   
------------------------|------------------------|------------------------|
------------------------|------------------------|------------------------|
--7----7--7----7--7--7--|------------------------|------------------------|
--7----7--7----7--7--7--|--5----5--5----5--5--5--|--7----7--7----7--7--7--|
--5----5--5----5--5--5--|--5----5--5----5--5--5--|--7----7--7----7--7--7--|
------------------------|--3----3--3----3--3--3--|--5----5--5----5--5--5--|


  W                     S S S S S S S S S S S S S S S S  
-------------------||-----------------------------------|
--3----------------||-----------------------------------|
--2----------------||*--7-7-7-7-7-7-7-7-7-7-7-7-7-7-7-7-|
--0----------------||*--7-7-7-7-7-7-7-7-7-7-7-7-7-7-7-7-|
-------------------||---5-5-5-5-5-5-5-5-5-5-5-5-5-5-5-5-|
-------------------||-----------------------------------|


  S S S S S S S S S S S S S S S S    S S S S S S S S S S S S S S S S  
----------------------------------|----------------------------------|
----------------------------------|----------------------------------|
--7-7-7-7-7-7-7-7-7-7-7-7-7-7-7-7-|--5-5-5-5-5-5-5-5-5-5-5-5-5-5-5-5-|
--7-7-7-7-7-7-7-7-7-7-7-7-7-7-7-7-|--5-5-5-5-5-5-5-5-5-5-5-5-5-5-5-5-|
--5-5-5-5-5-5-5-5-5-5-5-5-5-5-5-5-|--3-3-3-3-3-3-3-3-3-3-3-3-3-3-3-3-|
----------------------------------|----------------------------------|


  S S S S S S S S S S S S S S S S  4x  Q    E  E  Q    E  E   
-----------------------------------||------------------------|
-----------------------------------||------------------------|
--7-7-7-7-7-7-7-7-7-7-7-7-7-7-7-7-*||------------------------|
--7-7-7-7-7-7-7-7-7-7-7-7-7-7-7-7-*||--7----x--x--7----x--x--|
--5-5-5-5-5-5-5-5-5-5-5-5-5-5-5-5--||--7----x--x--7----x--x--|
-----------------------------------||--5----5--5--5----5--5--|


  Q    Q    Q    Q       Q    E  E  Q    E  E     W                 
----------------------|------------------------|-------------------|
----------------------|------------------------|-------------------|
----------------------|------------------------|-------------------|
----------------------|--7----x--x--7----x--x--|-------------------|
----------------------|--7----x--x--7----x--x--|-------------------|
--6----6----6----6----|--5----5--5--5----5--5--|--6----------------|


  Q    E  E  Q    E  E     Q    Q    Q    Q     
------------------------|----------------------|
------------------------|----------------------|
------------------------|----------------------|
--7----x--x--7----x--x--|----------------------|
--7----x--x--7----x--x--|----------------------|
--5----5--5--5----5--5--|--6----6----6----6----|


  S S S S S S S S S S S S S S S S  
----------------------------------|
----------------------------------|
----------------------------------|
--8-8-8-8-8-8-8-8-8-8-8-8-8-8-8-8-|
--8-8-8-8-8-8-8-8-8-8-8-8-8-8-8-8-|
--6-6-6-6-6-6-6-6-6-6-6-6-6-6-6-6-|


   S  S  S  S  S  S  S  S  S  S  S  S  S  S  S  S      Q    E  Q    E  E  E  
--------------------------------------------------||-------------------------
--------------------------------------------------||-------------------------
--------------------------------------------------||*--7----7--7----7--7--7--
--10-10-10-10-10-10-10-10-10-10-10-10-10-10-10-10-||*--7----7--7----7--7--7--
--10-10-10-10-10-10-10-10-10-10-10-10-10-10-10-10-||---5----5--5----5--5--5--
---8--8--8--8--8--8--8--8--8--8--8--8--8--8--8--8-||-------------------------


  Q    E  Q    E  E  E     Q    E  Q    E  E  E     Q    E  Q    E  E  E   3x
------------------------|------------------------|-------------------------||
------------------------|------------------------|-------------------------||
--3----3--3----3--3--3--|--5----5--5----5--5--5--|--2----2--2----2--2--2--*||
--3----3--3----3--3--3--|--5----5--5----5--5--5--|--2----2--2----2--2--2--*||
--1----1--1----1--1--1--|--3----3--3----3--3--3--|--0----0--0----0--0--0---||
------------------------|------------------------|-------------------------||


  S S S S S S S S S S S S S S S S    S S S S S S S S S S S S S S S S  
----------------------------------|----------------------------------|
----------------------------------|----------------------------------|
--7-7-7-7-7-7-7-7-7-7-7-7-7-7-7-7-|----------------------------------|
--7-7-7-7-7-7-7-7-7-7-7-7-7-7-7-7-|--5-5-5-5-5-5-5-5-5-5-5-5-5-5-5-5-|
--5-5-5-5-5-5-5-5-5-5-5-5-5-5-5-5-|--5-5-5-5-5-5-5-5-5-5-5-5-5-5-5-5-|
----------------------------------|--3-3-3-3-3-3-3-3-3-3-3-3-3-3-3-3-|


  S S S S S S S S S S S S S S S S    W                 
----------------------------------|-------------------|
----------------------------------|--3----------------|
--2-2-2-2-2-2-2-2-2-2-2-2-2-2-2-2-|--2----------------|
--2-2-2-2-2-2-2-2-2-2-2-2-2-2-2-2-|--0----------------|
--0-0-0-0-0-0-0-0-0-0-0-0-0-0-0-0-|--0----------------|
----------------------------------|-------------------|


    S S S S S S S S S S S S S S S S    S S S S S S S S S S S S S S S S  
|-----------------------------------|----------------------------------|
|-----------------------------------|----------------------------------|
|*--7-7-7-7-7-7-7-7-7-7-7-7-7-7-7-7-|--7-7-7-7-7-7-7-7-7-7-7-7-7-7-7-7-|
|*--7-7-7-7-7-7-7-7-7-7-7-7-7-7-7-7-|--7-7-7-7-7-7-7-7-7-7-7-7-7-7-7-7-|
|---5-5-5-5-5-5-5-5-5-5-5-5-5-5-5-5-|--5-5-5-5-5-5-5-5-5-5-5-5-5-5-5-5-|
|-----------------------------------|----------------------------------|


  S S S S S S S S S S S S S S S S    S S S S S S S S S S S S S S S S  4x
----------------------------------|-----------------------------------||
----------------------------------|-----------------------------------||
--5-5-5-5-5-5-5-5-5-5-5-5-5-5-5-5-|--7-7-7-7-7-7-7-7-7-7-7-7-7-7-7-7-*||
--5-5-5-5-5-5-5-5-5-5-5-5-5-5-5-5-|--7-7-7-7-7-7-7-7-7-7-7-7-7-7-7-7-*||
--3-3-3-3-3-3-3-3-3-3-3-3-3-3-3-3-|--5-5-5-5-5-5-5-5-5-5-5-5-5-5-5-5--||
----------------------------------|-----------------------------------||


  Q    E  E  Q    E  E     Q    Q    Q    Q       Q    E  E  Q    E  E   
------------------------|----------------------|------------------------|
------------------------|----------------------|------------------------|
------------------------|----------------------|------------------------|
--7----x--x--7----x--x--|----------------------|--7----x--x--7----x--x--|
--7----x--x--7----x--x--|----------------------|--7----x--x--7----x--x--|
--5----5--5--5----5--5--|--6----6----6----6----|--5----5--5--5----5--5--|


  W                   Q    E  E  Q    E  E     Q    Q    Q    Q     
-------------------|------------------------|----------------------|
-------------------|------------------------|----------------------|
-------------------|------------------------|----------------------|
-------------------|--7----x--x--7----x--x--|----------------------|
-------------------|--7----x--x--7----x--x--|----------------------|
--6----------------|--5----5--5--5----5--5--|--6----6----6----6----|


  S S S S S S S S S S S S S S S S  
----------------------------------|
----------------------------------|
----------------------------------|
--8-8-8-8-8-8-8-8-8-8-8-8-8-8-8-8-|
--8-8-8-8-8-8-8-8-8-8-8-8-8-8-8-8-|
--6-6-6-6-6-6-6-6-6-6-6-6-6-6-6-6-|


   S  S  S  S  S  S  S  S  S  S  S  S  S  S  S  S      Q    E  Q    E  E  E  
--------------------------------------------------||-------------------------
--------------------------------------------------||-------------------------
--------------------------------------------------||*--7----7--7----7--7--7--
--10-10-10-10-10-10-10-10-10-10-10-10-10-10-10-10-||*--7----7--7----7--7--7--
--10-10-10-10-10-10-10-10-10-10-10-10-10-10-10-10-||---5----5--5----5--5--5--
---8-8--8--8--8--8--8--8--8--8--8--8--8--8--8--8-||-------------------------|


  Q    E  Q    E  E  E     Q    E  Q    E  E  E     Q    E  Q    E  E  E   3x
------------------------|------------------------|-------------------------||
------------------------|------------------------|-------------------------||
--3----3--3----3--3--3--|--5----5--5----5--5--5--|--2----2--2----2--2--2--*||
--3----3--3----3--3--3--|--5----5--5----5--5--5--|--2----2--2----2--2--2--*||
--1----1--1----1--1--1--|--3----3--3----3--3--3--|--0----0--0----0--0--0---||
------------------------|------------------------|-------------------------||


  S S S S S S S S S S S S S S S S    S S S S S S S S S S S S S S S S  
----------------------------------|----------------------------------|
----------------------------------|----------------------------------|
--7-7-7-7-7-7-7-7-7-7-7-7-7-7-7-7-|----------------------------------|
--7-7-7-7-7-7-7-7-7-7-7-7-7-7-7-7-|--5-5-5-5-5-5-5-5-5-5-5-5-5-5-5-5-|
--5-5-5-5-5-5-5-5-5-5-5-5-5-5-5-5-|--5-5-5-5-5-5-5-5-5-5-5-5-5-5-5-5-|
----------------------------------|--3-3-3-3-3-3-3-3-3-3-3-3-3-3-3-3-|


  S S S S S S S S S S S S S S S S    W                  
----------------------------------|-------------------||
----------------------------------|--3----------------||
--2-2-2-2-2-2-2-2-2-2-2-2-2-2-2-2-|--2----------------||
--2-2-2-2-2-2-2-2-2-2-2-2-2-2-2-2-|--0----------------||
--0-0-0-0-0-0-0-0-0-0-0-0-0-0-0-0-|--0----------------||
----------------------------------|-------------------||



Duration Legend
---------------
W - whole
H - half
Q - quarter
E - 8th
S - 16th
T - 32nd
X - 64th
. - note dotted
|-n-|  - n-tuplets


Tablature Legend
----------------
L - tied note
x - dead note
g - grace note
(n) - ghost note
> - accentuded note
NH - natural harmonic
AH - artificial harmonic
TH - tapped harmonic
SH - semi harmonic
PH - pitch harmonic
h - hammer on
p - pull off
b - bend
br - bendRelease
pb - preBend
pbr - preBendRelease
brb - bendReleaseBend
\n/ - tremolo bar dip
\n - tremolo bar dive
-/n - tremolo bar Release up
/n\ - tremolo bar inverted dip
/n - tremolo bar return
-\n - tremolo bar Release down
S - shift slide
s - legato slide
/ -  slide into from below or out of upwards
\ -  slide into from above or out of downwards
~ - vibrato
W - wide vibrato
tr - trill
TP - tremolo picking
T - tapping
S - slap
P - pop
< - fade in
^ - brush up
v - brush down

Tap to rate this tab
# A B C D E F G H I J K L M N O P Q R S T U V W X Y Z