Song name
# A B C D E F G H I J K L M N O P Q R S T U V W X Y Z

Sabaton - Primo Victoria tab

Sabaton - Primo Victoria Guitar Solo
From the album Primo Victoria
Tabbed by drawnacrol 
Cover Video: http://www.youtube.com/watch?v=W3PyKP7-2ak

Sabaton - Primo Victoria Guitar Solo
From the album ‘Primo Victoria’
Tabbed by drawnacrol 
Cover Video: http://www.youtube.com/watch?v=W3PyKP7-2ak

E||-------------------------------------------------------------------|
B||-------------------------------------------------------------------|
G||-------------------------------------------------------------------|
D||------------6------7------6----------------------------------------|
A||--7/9---------------------------7------9------7------5------4~-----|
E||-------------------------------------------------------------------|
 
 
|------------------------------------------------------------------|
|------------------------------------------------------------------|
|----------------------------------------6------7------6----6~-----|
|------------6------7------9------7--------------------------------|
|--7/9-------------------------------------------------------------|
|------------------------------------------------------------------|
 

|---------------------------------------------|
|---------------------------------------------|
|--11~----11p9---------11~----16b(18)r--16----|
|-----------------11--------------------------|
|---------------------------------------------|
|---------------------------------------------|
 
Dip the wham bar while you pull off from 16 to 14:

|-----------------------------------------------------------|
|-----------------------------------------------------------|
|--16p14--14----16p14---16p14---16p14---16p14---16p14-------|
|---\-/---\-/----\-/-----\-/-----\-/-----\-/-----\----------|
|----v-----v------v-------v-------v-------v-------\---------|
|--------------------------------------------------\--------|

                 
|--19b(21)~~~~~--------|
|----------------------|
|----------------------|
|----------------------|
|----------------------|
|----------------------|
 

|--17p14----14h17p14h17p14----14h17p14h17p14----14h17p14h17p14------|
|--------17----------------17----------------17----------------17---|
|-------------------------------------------------------------------|
|-------------------------------------------------------------------|
|-------------------------------------------------------------------|
|-------------------------------------------------------------------|
 
               
|--19b(21)~~~~~----------||
|------------------------||
|------------------------||
|------------------------||
|------------------------||
|------------------------||
Tap to rate this tab
 
# A B C D E F G H I J K L M N O P Q R S T U V W X Y Z