Song name
# A B C D E F G H I J K L M N O P Q R S T U V W X Y Z

Sabaton - Guten Nacht tab

-----------------------------------------------------------------
Guten Nacht (simplfied) - Sabaton

NOTE: This is just a simplified version of the main guitar part and does not 
include the background guitar part. This is a good song for beginners.

-----------------------------------------------------------------
Tuning: Standard
e|---------------------------------------------------------------|
B|-3-5-6-8-10-10-8-10-10-10-8-10-8-6-5-3----10-10-8-10-10-10-8-10|
G|---------------------------------------------------------------|
D|---------------------------------------------------------------|
A|---------------------------------------------------------------|
E|---------------------------------------------------------------|

e|---------------------------------------------------------------|
B|-8-10-11-10-10-8-6-8-6-5-6-5-3-5-10-8-6-8-6-5-6-8-11-10--------|
G|---------------------------------------------------------------|
D|---------------------------------------------------------------|
A|---------------------------------------------------------------|
E|---------------------------------------------------------------|

e|---------------------------------------------------------------|
B|-3-5-6-8-10-10-8-10-10-10-8-10-8-6-5-3----10-10-8-10-10-10-8-10|
G|---------------------------------------------------------------|
D|---------------------------------------------------------------|
A|---------------------------------------------------------------|
E|---------------------------------------------------------------|

e|----------------------------------------------------------1-6-9|
B|-8-10-11-10-10-8-6-8-6-5-6-5-3-5-10-8-6-8-6-5-6-5-3-5-1-3------|
G|---------------------------------------------------------------|
D|---------------------------------------------------------------|
A|---------------------------------------------------------------|
E|---------------------------------------------------------------|
Tap to rate this tab
 
# A B C D E F G H I J K L M N O P Q R S T U V W X Y Z