Song name
# A B C D E F G H I J K L M N O P Q R S T U V W X Y Z

Sabaton - Gott Mit Uns tab

e|---------------------------------------------------------------------------|
b|---------------------------------------------------------------------------|
g|--10--10-10-10-8-7-------12-13-15--15-15-15--13-12-10----------------------|
D|-------------------10------------------------------------------------------|
A|---------------------------------------------------------------------------|
E|---------------------------------------------------------------------------|

e|---------------------------------------------------------------------------|
b|---------------------------------------------------------------------------|
g|--10-12-13----13-15-17--15-12----20--20-20-20-18-16-18---------------------|
D|---------------------------------------------------------------------------|
A|---------------------------------------------------------------------------|
E|---------------------------------------------------------------------------|

e|---------------------------------------------------------------------------|
b|---------------------------------------------------------------------------|
g|--7-8-10----8-7-8-7-5----12--12-12-12-10-8-10----13--10-13-12-10-8---------|
D|---------------------------------------------------------------------------|
A|---------------------------------------------------------------------------|
E|---------------------------------------------------------------------------|

e|---------------------------------------------------------------------------|
b|---------------------------------------------------------------------------|
g|--15--13-12-15--16---------------------------------------------------------|
D|---------------------------------------------------------------------------|
A|---------------------------------------------------------------------------|
E|---------------------------------------------------------------------------|
                                                                                _
e|---------------------------------------------------------------------------|   |
b|---------------------------------------------------------------------------|   |
g|--5-5--5-7-8-7-5-7-5-------------7-5---5--5-5--5-7-8-7-5-7-5---------------|   |
D|---------------------8--8-8--5-8-----8-----------------------8-------------|   |
A|---------------------------------------------------------------------------|   |
E|---------------------------------------------------------------------------|   |
                                                                                 |- x2 
e|---------------------------------------------------------------------------|   |
b|---------------------------------------------------------------------------|   |
g|--13--13-12-10-12-13-12-10-------------------------------------------------|   |
D|---------------------------------------------------------------------------|   |
A|---------------------------------------------------------------------------|   |
E|---------------------------------------------------------------------------|  _|

Tap to rate this tab
 
# A B C D E F G H I J K L M N O P Q R S T U V W X Y Z