Song name
# A B C D E F G H I J K L M N O P Q R S T U V W X Y Z

Sabaton - Aces In Exile tab

My first tab so there may be a few mistakes. Any corrections, let me know in the 
comments. Thanks

() = hamonic
~ = let ring

INTRO
E|-----------------------------------------|
B|-----------------------------------------|
G|-----------------------------------------|
D|-----------2-4-6---7---7-----6-----777-6-|
A|-7777-6666-0-2-4---5---4-444-4-444-444-4-|
E|-5555-4444-------------------------------|
 PM                        ...   ...

MAIN RIFF
E|-------------------------------------------------------------------------------------------|
B|-------------------------------------------------------------------------------------------|
G|-------------------------------------------------------------------------------------------|
D|-------------------------------------------------------------------------------------------|
A|----4-4---(5)---4-4---(2)---4-4---(5)-5-55p4p2-4p(2)----4-4---(5)----4-4---(2)---4-4---(5)-|
E|-222---2-2---222---2-2---222---2-2-------------------222---2-2----222---2-2---222---2-2----|
 PM...   . .   ...   . .   ...   . .    . .. . . .     ...   . .    ...   . .   ...   . .

E|---------------------------|
B|---------------------------|
G|---------------------------|
D|---------------------------|
A|-555-444-222-----77-6-(7)~-|
E|-------------444-55-4------|
 PM... ... ... ...

VERSE
E|-------------------------|--------------------|  |-------------------------|----------------|
B|-------------------------|--------------------|  |-------------------------|----------------|
G|-------------------------|--------------------|  |-------------------------|----------------|
D|-------------------------|--------------------|x3|-------------------------|----------------|
A|-4-----4-----4-----4-----|-2------------------|  |-4-----4-----4-----4-----|-2--------------|
E|-2-222-2-222-2-222-2-222-|-0-000-0000-555-444-|  |-2-222-2-222-2-222-2-222-|-0-000-0000-5-4-|
 PM  ...   ...   ...   ...     ... .... ... ...        ...   ...   ...   ...     ... ....

PRE CHORUS
E|----------------------------------------------|
B|----------------------------------------------|
G|----------------------------------------------|
D|----------------------------7-----6-----777-6-|
A|-7~---2~---4~--2--7~---2~---4-444-4-444-444-4-|
E|-5~---0~---2~--0--5~---0~---------------------|
 PM                             ...   ...

CHORUS
E|---------------------|-----------------|---------------------|---------------------------|
B|---------------------|-----------------|---------------------|---------------------------|
G|---------------------|-----------------|---------------------|---------------------------|
D|-6666-7777-6666-4444-|-6666-7777-7-6-4-|-6666-7777-6666-4444-|-666-777-7-----6-----777-6-|
A|-4444-5555-4444-2222-|-4444-5555-5-4-2-|-4444-5555-4444-2222-|-444-555-4-444-4-444-444-4-|
E|---------------------|-----------------|---------------------|---------------------------|
 PM                                                                        ...   ...

MAIN RIFF
E|-------------------------------------------------------------------------------------------|
B|-------------------------------------------------------------------------------------------|
G|-------------------------------------------------------------------------------------------|
D|-------------------------------------------------------------------------------------------|
A|----4-4---(5)---4-4---(2)---4-4---(5)-5-55p4p2-4p(2)----4-4---(5)----4-4---(2)---4-4---(5)-|
E|-222---2-2---222---2-2---222---2-2-------------------222---2-2----222---2-2---222---2-2----|
 PM...   . .   ...   . .   ...   . .    . .. . . .     ...   . .    ...   . .   ...   . .

E|---------------------------|
B|---------------------------|
G|---------------------------|
D|---------------------------|
A|-555-444-222-----77-6-(7)~-|
E|-------------444-55-4------|
PM... ... ... ...

VERSE
E|-------------------------|--------------------|  |-------------------------|----------------|
B|-------------------------|--------------------|  |-------------------------|----------------|
G|-------------------------|--------------------|  |-------------------------|----------------|
D|-------------------------|--------------------|x3|-------------------------|----------------|
A|-4-----4-----4-----4-----|-2------------------|  |-4-----4-----4-----4-----|-2--------------|
E|-2-222-2-222-2-222-2-222-|-0-000-0000-555-444-|  |-2-222-2-222-2-222-2-222-|-0-000-0000-5-4-|
 PM  ...   ...   ...   ...     ... .... ... ...        ...   ...   ...   ...     ... ....

PRE CHORUS
E|----------------------------------------------|
B|----------------------------------------------|
G|----------------------------------------------|
D|----------------------------7-----6-----777-6-|
A|-7~---2~---4~--2--7~---2~---4-444-4-444-444-4-|
E|-5~---0~---2~--0--5~---0~---------------------|
 PM                             ...   ...

CHORUS
E|---------------------|-----------------|---------------------|---------------------------|
B|---------------------|-----------------|---------------------|---------------------------|
G|---------------------|-----------------|---------------------|---------------------------|
D|-6666-7777-6666-4444-|-6666-7777-7-6-4-|-6666-7777-6666-4444-|-666-777-7-----6-----777-6-|
A|-4444-5555-4444-2222-|-4444-5555-5-4-2-|-4444-5555-4444-2222-|-444-555-4-444-4-444-444-4-|
E|---------------------|-----------------|---------------------|---------------------------|
 PM                                                                        ...   ...

BRIDGE
E|------|-----------------|---------|---------------------------------------------------|
B|------|-----------------|---------|---------------------------------------------------|
G|------|-----------------|---------|---------------------------------------------------|
D|------|-----------------|---------|-------------666-6-666-6--777-7-777-7--------------|
A|-4~~~-|-----------------|-777-222-|-444-4-444-4-444-4-444-4--555-5-555-5--7-777-6-666-|
E|-2~~~-|-----------------|-555-000-|-222-2-222-2---------------------------5-555-4-444-|
 PM                                   ...   ...   ...   ...    ...   ...      ...   ...

E|---------------------------------------------------|
B|---------------------------------------------------|
G|---------------------------------------------------|
D|-------------666-6-666-6--777-7-777-7--999-9-999-9-|
A|-444-4-444-4-444-4-444-4--555-5-555-5--777-7-777-7-|
E|-222-2-222-2---------------------------------------|
 PM...   ...   ...   ...    ...   ...    ...   ...

SOLO
E|------------------------------------------------------------------------------------------|
B|-14-14-14-14-14-141414-141414-\12-11-/12-11h12p9~-----------101010h12-141414p12~-10-9~-\--|
G|---------------------------------------------------/9-/11~--------------------------------|
D|------------------------------------------------------------------------------------------|
A|------------------------------------------------------------------------------------------|
E|------------------------------------------------------------------------------------------|

E|--------------------------------------------------------|----------|
B|--------------------------------------------------------|----------|
G|--------------------------------------------------------|----------|
D|-7-000-6-000-4-000-6h7-6-000-4-000-2-000-h6-2-4~---/6~--|----------|
A|--------------------------------------------------------|----------|
E|--------------------------------------------------------|-15\\\\\\-|

PRE CHORUS
E|----------------------------------------------|
B|----------------------------------------------|
G|----------------------------------------------|
D|----------------------------7-----6-----777-6-|
A|-7~---2~---4~--2--7~---2~---4-444-4-444-444-4-|
E|-5~---0~---2~--0--5~---0~---------------------|
 PM                             ...   ...

CHORUS
E|---------------------|-----------------|---------------------|---------------------------|
B|---------------------|-----------------|---------------------|---------------------------|
G|---------------------|-----------------|---------------------|---------------------------|
D|-6666-7777-6666-4444-|-6666-7777-7-6-4-|-6666-7777-6666-4444-|-666-777-7-----6-----777-6-|
A|-4444-5555-4444-2222-|-4444-5555-5-4-2-|-4444-5555-4444-2222-|-444-555-4-444-4-444-444-4-|
E|---------------------|-----------------|---------------------|---------------------------|
 PM                                                                        ...   ...

OUTRO
E|---------------------|---------------------|---------------------|-----------|
B|---------------------|---------------------|---------------------|-----------|
G|---------------------|---------------------|---------------------|-----------|
D|------7~-------------|------7~-------------|-7~------------------|-7~---4~---|
A|-4~---5~---7~---2~---|-4~---5~---2~---4~---|-5~---7~---2~---4~---|-5~---2~---|
E|-2~--------5~---0~---|-2~--------0~---2~---|------5~---0~---2~---|-----------|

OUTRO 2
E|-------------------------------------------------------------------------------------------|
B|-------------------------------------------------------------------------------------------|
G|-------------------------------------------------------------------------------------------|
D|-------------------------------------------------------------------------------------------|
A|----4-4---(5)---4-4---(2)---4-4---(5)-5-55p4p2-4p(2)----4-4---(5)----4-4---(2)---4-4---(5)-|
E|-222---2-2---222---2-2---222---2-2-------------------222---2-2----222---2-2---222---2-2----|
 PM...   . .   ...   . .   ...   . .    . .. . . .     ...   . .    ...   . .   ...   . .

E|---------------------------|
B|---------------------------|
G|---------------------------|
D|---------------------------|
A|-555-444-222-----77-6-(7)~-|
E|-------------444-55-4------|
PM... ... ... ...
Tap to rate this tab
# A B C D E F G H I J K L M N O P Q R S T U V W X Y Z