Song name
# A B C D E F G H I J K L M N O P Q R S T U V W X Y Z

Sabaton - In The Name Of God tab

Second Sabaton tab. Fairy sure this one has little to no mistakes. Once again any 
corrections, leave in the comments. Enjoy.

INTRO/MAIN RIFF
E|---------||---------------------------------------------------------|
B|---------||---------------------------------------------------------|
G|---------||---------------------------------------------------------|
D|-777-666-||----------4---------------------------4----------777-999-|
A|-555-444-||-----4-------4---4-----7---2-----4-------4---4---555-777-|
E|---------||-2-22-2222-22-222-22-555-000-2-22-2222-22-222-22---------|
 PM           . .. .... .. ... .. ..  ..  . .. .... .. ... ..

E|---------------------------------------------------------|
B|---------------------------------------------------------|
G|---------------------------------------------------------|
D|----------4---------------------------4----------777-666-|
A|-----4-------4---4---777-222-----4-------4---4---555-444-|
E|-2-22-2222-22-222-22-555-000-2-22-2222-22-222-22---------|
 PM. .. .... .. ... ..         . .. .... .. ... ..

VERSE
E|---------------------------------------------------------------------|
B|---------------------------------------------------------------------|
G|---------------------------------------------------------------------|
D|-------------------------------------------------------4~------------|
A|------4------5---2------4------2---5------4----555-222-2~--5~--------|   \
E|-2-22-2-22-333-000-2-22-2-22-000-333-2-22-2-22-333-000-----3~-|   ---|
 PM. ..   .. ..  ..  . ..   .. ..  ..  . ..   ..                     |
                                                                     | x2
E|-----------------------------------------------------------------|---|
B|-----------------------------------------------------------------|---|
G|---------------------------------------------------------------------| /
D|-------------------------------------------------------5~------------|
A|------4------5---2------4------2---5------4------5---2-3~--55-55-----|
E|-2-22-2-22-333-000-2-22-2-22-000-333-2-22-2-22-333-000-----33-33-----|
 PM. ..   .. ..  ..  . ..   .. ..  ..  . ..   .. ..  ..

PRE CHORUS
E|-------------------------|
B|-------------------------|
G|-------------------------|
D|-4~--------6-6-6-6-9-4-6-|
A|-2~---4~---4-4-4-4-7-2-4-|
E|------2~-----------------|

CHORUS
E|-----------------------------------------------------------------------|  |------|
B|-----------------------------------------------------------------------|  |------|
G|-----------------------------------------------------------------------|  |-6~---|
D|-----------4----4--------------2~------------------4----4----2~--------|x2|-6~---|
A|-4----4----2-22-2-22-4----4----0~---2~---4----4----2-22-2-22-0~---2~---|  |-4~---|
E|-2-22-2-22-----------2-22-2-22------0~---2-22-2-22----------------0~---|  |------|
 PM  ..   ..   ..   ..   ..   ..             ..   ..   ..   ..

MAIN RIFF
E|---------------------------------------------------------|
B|---------------------------------------------------------|
G|---------------------------------------------------------|
D|----------4---------------------------4----------777-999-|
A|-----4-------4---4-----7---2-----4-------4---4---555-777-|
E|-2-22-2222-22-222-22-555-000-2-22-2222-22-222-22---------|
 PM. .. .... .. ... .. ..  ..  . .. .... .. ... ..

E|---------------------------------------------------------|
B|---------------------------------------------------------|
G|---------------------------------------------------------|
D|----------4---------------------------4----------777-666-|
A|-----4-------4---4---777-222-----4-------4---4---555-444-|
E|-2-22-2222-22-222-22-555-000-2-22-2222-22-222-22---------|
 PM. .. .... .. ... ..         . .. .... .. ... ..

VERSE
E|---------------------------------------------------------------------|
B|---------------------------------------------------------------------|
G|---------------------------------------------------------------------|
D|-------------------------------------------------------4~------------|
A|------4------5---2------4------2---5------4----555-222-2~--5~--------|   \
E|-2-22-2-22-333-000-2-22-2-22-000-333-2-22-2-22-333-000-----3~-|   ---|
 PM. ..   .. ..  ..  . ..   .. ..  ..  . ..   ..                     |
                                                                     | x2
E|-----------------------------------------------------------------|---|
B|-----------------------------------------------------------------|---|
G|---------------------------------------------------------------------| /
D|-------------------------------------------------------5~------------|
A|------4------5---2------4------2---5------4------5---2-3~--55-55-----|
E|-2-22-2-22-333-000-2-22-2-22-000-333-2-22-2-22-333-000-----33-33-----|
 PM. ..   .. ..  ..  . ..   .. ..  ..  . ..   .. ..  ..

PRE CHORUS
E|-------------------------|
B|-------------------------|
G|-------------------------|
D|-4~--------6-6-6-6-9-4-6-|
A|-2~---4~---4-4-4-4-7-2-4-|
E|------2~-----------------|

CHORUS
E|-----------------------------------------------------------------------|  |--------------|
B|-----------------------------------------------------------------------|  |--------------|
G|-----------------------------------------------------------------------|  |-6~-----------|
D|-----------4----4--------------2~------------------4----4----2~--------|x2|-6~---777-666-|
A|-4----4----2-22-2-22-4----4----0~---2~---4----4----2-22-2-22-0~---2~---|  |-4~---555-444-|
E|-2-22-2-22-----------2-22-2-22------0~---2-22-2-22----------------0~---|  |--------------|
 PM  ..   ..   ..   ..   ..   ..             ..   ..   ..   ..

SOLO
E|------------------------------------------------------------------------------------------|
B|------------------------------------------------------------------------------------------|
G|-4^~---4^4^4^4^4^4^4^4^4^4^4^4^4^4^4^----------------------10----10--10--10---------------|
D|--------------------------------------7/9\7~---\4\2/4---/11--11\9--\8--\7--7-6~---7p6p4h6-|
A|------------------------------------------------------------------------------------------|
E|------------------------------------------------------------------------------------------|

E|-------------------------------------------------------------------------------------|
B|-------------------------------------------------------------------------------------|
G|--------------------6-7-4-6-7p6p4~---------------------------------------------------|
D|---6p4-3-6-4-7-6-9-7-----------------9h11p9\7-7h9p7\6-6h7p6\4-4h6p4\3-3h4p3p0--------|
A|-4----------------------------------------------------------------------------4-4~---|
E|-------------------------------------------------------------------------------------|
 PM  . .     . . . . .

E|----------------------------------------------------------------------------|
B|-12b---/14--10-12-14-12-14-12-10--------------------------------------------|
G|--------------------------------13-14-13-11-10h11/13-11p10-----10-----------|
D|----------11----------------------------------------------11h12--12p9h11~---|
A|----------------------------------------------------------------------------|
E|----------------------------------------------------------------------------|

E|----------------------------|
B|-/14-18-19-19b-r19-18 19~---|
G|----------------------------|
D|----------------------------|
A|----------------------------|
E|----------------------------|

BRIDGE
E|-------|-------|--------------------------------|--------------------------------|
B|-------|-------|--------------------------------|--------------------------------|
G|-------|-------|--------------------------------|----------------------6~---6~---|
D|-----4-|-------|---7~---------------------------|-------------7-7-2----6~---6~---|
A|---4-2-|---2-4-|---5~---4-4-4-4-4-4-2-2-2-2-2-2-|-4-4-4-4-4-4-5-5-0-2--4~---4~---|
E|---2---|---0-2-|--------2-2-2-2-2-2-0-0-0-0-0-0-|-2-2-2-2-2-2-------0------------|
 PM  . .     . .

PRE CHORUS
E|-------------------------|
B|-------------------------|
G|-------------------------|
D|-4~--------6-6-6-6-9-4-6-|
A|-2~---4~---4-4-4-4-7-2-4-|
E|------2~-----------------|

CHORUS
E|----------------------------------------------------------------------|
B|----------------------------------------------------------------------|
G|----------------------------------------------------------------------|
D|----------4----4--------------2~------------------4----4----2~--------|x2
A|-4----4---2-22-2-22-4----4----0~---2~---4----4----2-22-2-22-0~---2~---|
E|-2-22-2-22----------2-22-2-22------0~---2-22-2-22----------------0~---|
 PM  ..   ..  ..   ..   ..   ..             ..   ..   ..   ..

E|----------------------------------------------------------------------|--------------|
B|----------------------------------------------------------------------|--------------|
G|----------------------------------------------------------------------|-6~-----------|
D|----------4----4--------------2~------------------4----4----2~--------|-6~---777-666-|
A|-4----4---2-22-2-22-4----4----0~---2~---4----4----2-22-2-22-0~---2~---|-4~---555-444-|
E|-2-22-2-22----------2-22-2-22------0~---2-22-2-22----------------0~---|--------------|
 PM  ..   ..  ..   ..   ..   ..             ..   ..   ..   ..
Tap to rate this tab
# A B C D E F G H I J K L M N O P Q R S T U V W X Y Z