Song name
# A B C D E F G H I J K L M N O P Q R S T U V W X Y Z

Sabaton - Union tab

INTRO
E|-----------------------------------------------------------------------|
B|-----------------------------------------------------------------------|
G|------------------------------------8-----8-------------5-----8p7h8----|
D|-555555-555555-555555-555555-8p55555-55555-55555-8p55555-55555-----555-|
A|-----------------------------------------------------------------------|
E|-----------------------------------------------------------------------|

E|-----------------------------------------------|
B|-----------------------------------------------|
G|--7-8p7-5h7-----7-8p7-5h7---5----7-8p7-5h7-----|
D|------------555-----------8---7------------555-|
A|-----------------------------------------------|
E|-----------------------------------------------|

E|----------------------------------------------------------------------------|
B|----------------------------------------------------------------------------|
G|-7-8p7-5h7-8-10-5--7-8p7-5h7-----7-8p7-5h7---5----7-8p7-5h7-----7-8p7-5h7-8-|
D|-----------------------------555-----------8---7------------555-------------|
A|----------------------------------------------------------------------------|
E|----------------------------------------------------------------------------|

MAIN RIFF
E|----|--------------------------------------------------------|
B|----|--------------------------------------------------------|
G|----|-7-8p7-5h7-8-----------------7-8p7-5h7-8---------5~~----|
D|----|-----------------8---8--p5-------------------8----------|
A|----|-------------6----------------------------6-------------|
E|----|--------------------------------------------------------|
 |
E|----|--------------------------------------------------------|
B|----|--------------------------------------------------------|
G|----|--------------------------------------------------------|
D|----|--------------888888-101010---------------888888-101010-|
A|-3~-|-555555555555-666666-888888--555555555555-666666-888888-|
E|-1~-|-333333333333----------------333333333333---------------|
 PM     ............ ...... ......  ............ ...... ......

E|-----------------------------------------------------|
B|-----------------------------------------------------|
G|-7-8p7-5h7-8-----------------7-8p7-5h7-8-------------|
D|-----------------8---8--p5----------------333-----3~-|
A|-------------6----------------------------111-333-1~-|
E|----------------------------------------------111----|
 |
E|-----------------------------------------------------|
B|-----------------------------------------------------|
G|-----------------------------------------------------|
D|--------------888888-101010---------------333-----3~-|
A|-555555555555-666666-888888--555555555555-111-333-1~-|
E|-333333333333----------------333333333333-----111----|
 PM............ ...... ......  ............

VERSE
E|-----------------------------------------------------------------------------------------|
B|-----------------------------------------------------------------------------------------|
G|-----------------------------------------------------------------------------------------|
D|---------8---3-------------------8---3---------------88888888-10101010-------------------|
A|-3/5~\---6---1---3~-3333-5-5~\---6---1---3~-3333-5-5-66666666-88888888-8---3---5-555-5-3-|
E|-1/3~\-----------1~-1111-2-3~\-----------1~-1111-2-3-------------------6---1---3-333-3-1-|
 Pm                   ...                            ... ...  ... ...           ...

E|----------------------------|
B|----------------------------|
G|----------------------------|
D|-8---10--77777777-8888-1010-|
A|-6---8---55555555-6666-8888-|
E|----------------------------|
 Pm         ... ...  ...  ...

MAIN RIFF
E|----|--------------------------------------------------------|
B|----|--------------------------------------------------------|
G|----|-7-8p7-5h7-8-----------------7-8p7-5h7-8---------5~~----|
D|----|-----------------8---8--p5-------------------8----------|
A|----|-------------6----------------------------6-------------|
E|----|--------------------------------------------------------|
 |
E|----|--------------------------------------------------------|
B|----|--------------------------------------------------------|
G|----|--------------------------------------------------------|
D|----|--------------888888-101010---------------888888-101010-|
A|-3~-|-555555555555-666666-888888--555555555555-666666-888888-|
E|-1~-|-333333333333----------------333333333333---------------|
 PM     ............ ...... ......  ............ ...... ......

E|-----------------------------------------------------|
B|-----------------------------------------------------|
G|-7-8p7-5h7-8-----------------7-8p7-5h7-8-------------|
D|-----------------8---8--p5----------------333-----3~-|
A|-------------6----------------------------111-333-1~-|
E|----------------------------------------------111----|
 |
E|-----------------------------------------------------|
B|-----------------------------------------------------|
G|-----------------------------------------------------|
D|--------------888888-101010---------------333-----3~-|
A|-555555555555-666666-888888--555555555555-111-333-1~-|
E|-333333333333----------------333333333333-----111----|
 PM............ ...... ......  ............

VERSE
E|-----------------------------------------------------------------------------------------|
B|-----------------------------------------------------------------------------------------|
G|-----------------------------------------------------------------------------------------|
D|---------8---3-------------------8---3---------------88888888-10101010-------------------|
A|-3/5~\---6---1---3~-3333-5-5~\---6---1---3~-3333-5-5-66666666-88888888-8---3---5-555-5-3-|
E|-1/3~\-----------1~-1111-2-3~\-----------1~-1111-2-3-------------------6---1---3-333-3-1-|
 Pm                   ...                     ...      ... ...  ... ...            ...

E|----------------------------|
B|----------------------------|
G|----------------------------|
D|-8---10--77777777-8888-1010-|
A|-6---8---55555555-6666-8888-|
E|----------------------------|
 Pm         ... ...  ...  ...

CHORUS
E|---------------------------------------------------------------------------|
B|---------------------------------------------------------------------------|
G|---------------------------------------------------------------------------|
D|-----8---3-------3333-/8888-5555------------8---3--------------------------|
A|-5---6---1---3---1111-/6666-3333-3333---1---6---1---3---5555-8888-33333333-|
E|-3-----------1-------------------1111---3-----------1---3333-6666-11111111-|
 Pm                 ...   ...  ...  ...                    ...  ...  ... ...

BRIDGE
E|-------------------------------------------------|
B|-------------------------------------------------|
G|-------------------------------------------------|
D|-------------------------------------------------|
A|---------------111111-000000--111111-333333---5~-|
E|-333333-111111--------------------------------3~-|
 Pm...... ...... ...... ......  ...... ......

SOLO
E|-------------------------------------------------------------------------|
B|-------------------------------------------------------------6-6-8~------|
G|-7~---7~---8p7p5-7p5-5------------------------------5-5h7-5h7-7----------|
D|--------------------8-8p7-8p7-------------5~---8p7-8-8-------------------|
A|-----------------------------8-8~-5h8-5h8--------------------------------|
E|-------------------------------------------------------------------------|

E|-----13\11-10-10----------------15-18-17-h18p17---------------------|
B|---15-----------13~---/15--/16-----------------18--/15-13-\11-11~---|
G|-12-----------------------------------------------------------------|
D|--------------------------------------------------------------------|
A|--------------------------------------------------------------------|
E|--------------------------------------------------------------------|

E|------------15-15-------------------------17-17----------------------------------------------|
B|-------16-18-----18-16-15------------18-20-----20-18--------------/16-/18b~--\15~--/15--/12~-|
G|-----15------------------17-15-----17---------------20-19-17--19~----------------------------|
D|---17----------------------------19----------------------------------------------------------|
A|-18----------------------------20------------------------------------------------------------|
E|---------------------------------------------------------------------------------------------|

INTERLUDE
E|----------------------------------------------------------------|
B|----------------------------------------------------------------|
G|--7-8p7-5h7-----7-8p7-5h7---5----7-8p7-5h7-----7-8p7-5h7-8-10-5-|
D|------------555-----------8---7------------555------------------|
A|----------------------------------------------------------------|
E|----------------------------------------------------------------|

E|-----------------------------------------------|
B|-----------------------------------------------|
G|--7-8p7-5h7-----7-8p7-5h7---5----7-8p7-5h7-----|
D|------------555-----------8---7------------555-|
A|-----------------------------------------------|
E|-----------------------------------------------|

E|----------------|
B|----------------|
G|----------------|
D|-----------5~---|
A|-8~---3~---3~---|
E|-6~---1~--------|

BRIDGE 2
E|-----------------------------------------------------------------------------------------|
B|-----------------------------------------------------------------------------------------|
G|-------12h13p12-10h12------10----------12h13p12-10h12-15------10----------12h13p12-10h12-|
D|-101010----------------------12--101010---------------------13------101010---------------|
A|----------------------11h13-------------------------------12-----------------------------|
E|-----------------------------------------------------------------------------------------|
 |
E|-----------------------------------------------------------------------------------------|
B|-----------------------------------------------------------------------------------------|
G|-----------------------------------------------------------------------------------------|
D|-555555555555---------------------555555555555----------------------555555555555---------|
A|-333333333333---------6~---8~-----333333333333------------6~--8~----333333333333---------|
E|----------------------4~---6~-----------------------------4~--6~-------------------------|

E|---------------------------------------------------------------------------|
B|---------------------------------------------------------------------------|
G|------10-------------12h13p12-10h12-15---1212h13p12-p1010-8\7-7~-----------|
D|--------12---101010--------------------------------------------------------|
A|-11h13---------------------------------------------------------------------|
E|---------------------------------------------------------------------------|
 |
E|---------------------------------------------------------------------------|
B|---------------------------------------------------------------------------|
G|---------------------------------------------------------------------------|
D|--------------5-5-5-5-5-5-5-5-5-5-5-5----101010x---------------------------|
A|-6~---8~------3-3-3-3-3-3-3-3-3-3-3-3----8-8-8-x-----101010x--9~-999-7-777-|
E|-4~---6~---------------------------------------------8-8-8-x--7~-777-7-777-|

E|---------------------|
B|---------------------|
G|---------------------|
D|---------------------|
A|-10-101010-12-121212-|
E|-8--8-8-8--10-101010-|

CHORUS
E|---------------------------------------------------------------------------|
B|---------------------------------------------------------------------------|
G|---------------------------------------------------------------------------|
D|-----8---3-------3333-/8888-5555------------8---3--------------------------|
A|-5---6---1---3---1111-/6666-3333-3333---1---6---1---3---5555-8888-33333333-|
E|-3-----------1-------------------1111---3-----------1---3333-6666-11111111-|
 Pm                 ...   ...  ...  ...                    ...  ...  ... ...

BRIDGE
E|-------------------------------------------------|
B|-------------------------------------------------|
G|-------------------------------------------------|
D|-------------------------------------------------|
A|---------------111111-000000--111111-333333---5~-|
E|-333333-111111--------------------------------3~-|
 Pm...... ...... ...... ......  ...... ......

E|-11-11p10-------10------------|
B|----------13------------------|
G|--------------------1210--12~-|
D|------------------------------|
A|------------------------------|
E|------------------------------|
 |
E|------------------------------|
B|------------------------------|
G|------------------------------|
D|-888-10>-121212-888-10>-------|
A|-666-888-101010-666-888---5~--|
E|--------------------------3~--|
Tap to rate this tab
# A B C D E F G H I J K L M N O P Q R S T U V W X Y Z