Saber Tiger - Eternal Loop Clear tab

Dedicated to the ones who appreciate good music and good anime.
Tabbed by ear, I have no idea if I'm going to finish it.

Intro --Incomplete--

Verse 1
E |----------------|----------------|----------------|----------------|
B |----------------|----------------|----------------|----------------|
G |----------------|----------------|----------------|----------------|
D |---0--7--9--7--0|---0--7--9--7--0|---0--7--9--7--0|---0-7-----9-7--|
A |----------------|----------------|----------------|----------------|
D |5---------------|5---------------|7---------------|7------7--------|

Pre-chorus
E |----------------|----------------|----------------|----------------|
B |----------------|----------------|----------------|----------------|
G |----------------|----------------|--7~~~~--7--6---|------6-----7--6|
D |---0--7--9--7--0|---0--7--7-7----|--7~~~~--------7|---7------------|
A |----------------|---------7-7----|--5~~~~---------|----------------|
D |5---------------|5--------7-7----|--5~~~~---------|5--------5------|

E |----------------|----------------|----------------|----------------|
B |----------------|----------------|----------------|----------------|
G |------6--7--6---|------6-----7--6|------6--7--6---|------6--7--6---|
D |---7-----------7|---7------------|---7-----------7|---7-----------7|
A |----------------|----------------|----------------|----------------|
D |5---------------|5--------5------|9---------------|7---------------|

E |----------------|----------------|----------------|
B |----------------|----------------|----------------|
G |------6--7--6---|------6--7--6---|------6--7--6---|
D |---7-----------7|---7-----------7|---7-----------7|
A |----------------|----------------|----------------|
D |5---------------|7---------------|7---------------|

Verse again
Chorus --Incomplete--
Solo --Incomplete--
Tap to rate this tab
 
# A B C D E F G H I J K L M N O P Q R S T U V W X Y Z