Song name
# A B C D E F G H I J K L M N O P Q R S T U V W X Y Z

Sabicas - Danza Arabe tab

Danza Arabe - Sabicas
As seen played by Grisha Goryachev
(Capo Fret 3)

     |-3-|                    |-3-|                    |-3-|                   
     S S S H.           E     S S S H.           E     S S S Q.     Q.     E   
E||------------------------|------------------------|-------------------------|
B||------------------------|------------------------|-------------------------|
G||--------2------------L--|--------1------------L--|--------2------3------L--|
D||------3-L---------------|------3-L---------------|------3-L----------------|
A||----0---L---------------|----0---L---------------|----0---L----------------|
D||--0-----L---------------|--0-----L---------------|--0-----L----------------|


  |-3-|                    |-3-| |-3-| |-3-| |-3-| |-3-| |-3-| |-3-| |-3-|  
  S S S H.           E     S S S S S S S S S S S S S S S S S S S S S S S S  
------------------------|--------------------------------------------------|
------------------------|--------------------------------------------------|
--------0------------L--|----0-----0-----0-----0-----0-----0-----0-----0---|
------2-L------------L--|------2-----2-----2-----2-----2-----2-----2-----2-|
----4---L------------L--|--4-----4-----4-----4-----4-----4-----4-----4-----|
--2-----L------------L--|--------------------------------------------------|


  T E  S T T T T T T T T T T T T T T T T T T T T T T T T T  
-----------------------------------------------------------|
-----------------------------------------------------------|
-----------------------------------------------------------|
-----------------------------------------------------------|
--4--------------------------------------------------------|
----2--2-2-2-2-2-2-2-2-2-2-2-2-2-2-2-2-2-2-2-2-2-2-2-2-2-2-|


  T T T. T. T S S S S S S. S. Q    S    W                 
-------------------------------------|-------------------|
-------------------------------------|-------------------|
-------------------------------------|-------------------|
-------------------------------------|-------------------|
-------------------------------------|-------------------|
--2-2-2--2--2-2-2-2-2-2-2--2--2----L-|--L----------------|


  S  S S S S  S  S S S  S  S  S S E.     S H        Q    E.   
--------------------------------------|----L-------------0---|
--------------------------------------|----------------------|
--------------------------------------|----------------------|
-----------0h-2p-0--------------0-----|----------------------|
--1p-0-1-3---------4-1p-0h-1h-4---4---|--1-0--------L----L---|
--x-------------------------------x---|----------------------|


  T T T T T T T T T T T T T T T T T T T T T T T T T T T T T T T T  
--------0-1-0-----------------------------------------------------|
------2-------3-1---------------1---------------------------------|
----0-------------3-2-0---0-2-3---3-2-0---------------0-----------|
--2---------------------3---------------3-2-0---0-2-3---3-2-0-----|
----------------------------------------------4---------------3-1-|
------------------------------------------------------------------|


  E  E   S. S S  S S  S S. Q       H.           Q     
--------------------------------|--------------------|
--------------------------------|--------------------|
--------------------------------|--------------------|
---------------------------7----|--L-----------------|
--0-----------------------------|--------------------|
-----2h--3--3-3h-5-5h-7-7--L----|--L------------2----|


  S S S S S S S S S S S S S S S S    E.  T T T T T T T T T T T T T T T Q    S.  
----------------------------------|--------------1-----------1-----------------|
----------------------------------|------------3---3-------3---3---------------|
----------------------------------|----------2-------2---2-------2-------------|
----------------------------------|--------0-----------0-----------0-----------|
----------------------------------|------0---------------------------0---------|
--3-5-3-2-0-2-3-5-3-2-0-2-3-5-3-2-|--0-----------------L---------------0----L--|


  W                   S. S. S. S. S. S. S. S. S. S. S  
-------------------|----------------------------------|
-------------------|----------------------------------|
-------------------|--2p-0----------------------------|
-------------------|--------------5p-3--------3p-2----|
-------------------|-----------0-----------0----------|
--L----------------|--------0-----------0-----------0-|


  T. S. E.   E.  X S. S. S. S. S.    S. S. S. S. S. S. S. E.   E  T  
----------------------------------|---------------------------------|
----------------------------------|---------------------------------|
-------------------2p-0-----------|---------------------------------|
--------2p---0---L-------------5p-|--3--------3p-2--------2p---0--L-|
-----0----------------------0-----|--------0-----------0------------|
--L----------------------0--------|-----0-----------0---------------|


  S. S. S. S. S. S. S. S. S. S. S    T S. S. S. S  S. S  S. S  S. S  S. T T  
----------------------------------|-----------------------------------------|
----------------------------------|-----------------------------------------|
--2p-0----------------------------|-----------------------------------------|
--------------5p-3--------3p-2----|-------2p-0--0h-2--2h-3--3h-5--5h-7------|
-----------0-----------0----------|----0----------------------------------0-|
--------0-----------0-----------0-|--L----------------------------------0---|


  W                   S. S. S. S. S. S. S. S. S. S. S  
-------------------|----------------------------------|
-------------------|--3p-2--------2p-1--------1p-0----|
-------------------|----------------------------------|
--7----------------|----------------------------------|
--L----------------|-----------0-----------0----------|
--L----------------|--------0-----------0-----------0-|


  T S. E.  E.  T S. S. S. S. S.    S. S. S. S. S. S. S. E.  E  T  
--------------------------------|--------------------------------|
-----------------3p-2--------2p-|--1--------1p-0-----------------|
-------3---2---L----------------|-----------------------3---2--L-|
--------------------------------|--------------------------------|
----0---------------------0-----|--------0-----------0-----------|
--L--------------------0--------|-----0-----------0--------------|


  S. S. S. S. S. S. S. S. S. S. S    T S. S. S. S  S. S  S. S  S S  S S  S  
----------------------------------|----------------------------------------|
----------------------------------|----------------------------------------|
--2p-1--------1p-0----------------|----------------------------------------|
--------------------------5p-3----|-------3p-2--2p-0--0h-2--2h-3-3h-5-5h-7-|
-----------0-----------0----------|----0-----------------------------------|
--------0-----------0-----------0-|--L-------------------------------------|


  T T H.           E.     S. S. S. S. S. S. S. S. S. S. S  
-----------------------|----------------------------------|
-----------------------|----------------------------------|
-----------------------|----------------------------------|
------7------------L---|--7p-5--------5p-3--------3h-5----|
----0-L------------L---|-----------3-----------3----------|
--0---L------------L---|--------3-----------3-----------3-|


  T S. E.  E.  S. S. S. S. S. T    S S. S. S. S. S. S. E.  E.   
--------------------------------|------------------------------|
--------------------------------|------------------------------|
--------------------------------|------------------------------|
-------7---3---7p-5--------5p-3-|--L-------3h-5--------7---3---|
----3-------------------3-------|-------3-----------3----------|
--L------------------3----------|----3-----------3-------------|


  S. S. S. S. S. S. S. S. S. S. S    T S. S. S. S. S. S. S. S. S. S. T  
----------------------------------|------------------------------------|
----------------------------------|------------------------------------|
----------------------------------|------------------------------------|
--7p-5--------5p-3--------3h-5----|-------5--7--------7p-5--5p-3--3h-5-|
-----------3-----------3----------|----3-----------3-------------------|
--x-----3-----------3-----------3-|--L----------3-----x-----x-----x----|


    |--3--|                   
  S S  S  S S S H        E.   
-----------------------------|
-----------------------------|
-----------------------------|
--L-3h-5h-7-----7--------L---|
--------------0--------------|
------------0----------------|

(this strange part, the 1st string volume is optional)
    |-3-|       |-3-|       |-3-|       |-3-|      
  S T T T S S S T T T S S S T T T S S S T T T S S  
--------0-----------0-----------0-----------0-----|
------3-----3-----3-----------3-----3-----3-------|
----2-------2---2-----------2-------2---2---------|
--0-------3---2---------2-0-------3---2---------2-|
----------------------4-----------------------4---|
--------------------------------------------------|


                                         ^    ^    ^    ^    ^    ^  
    |-3-|                                                            
  S T T T S S S S S S S S S S S S S S    E  S E  S E  S E  S E  S S  
--------0-------3-------1-------0-----|-----1----1----0----0----1---|
------3---------3-------3-------3-----|--3----3----2----2----3----3-|
----2-------2-0---3-0-2-----2-0-2-----|--2----2----3----3----2----2-|
--0-------3---------------3-------3-2-|--0----3----2----2----0----3-|
--------------------------------------|--0----0----0----4----0----0-|
--------------------------------------|--x----x----x----x----x----x-|


  ^   ^    ^    ^    ^    ^       ^    ^    ^    ^    ^     
  S S E  S E  S E  S E  S E     S E  S E  S E  S E  S E  S  
----1----0----0----1----1-3--|--3-3--3-1--1-1--1----0----0-|
--L---2----2----3----3----3--|----3----3----3----2----2----|
--L---3----3----2----2----0--|----3----2----2----3----3----|
--L---2----2----0----3----0--|----0----0----3----2----2----|
--L---0----4----0----0-------|-------------------0----4----|
--L---x----x----x----x----x--|----x----x----x----x----x----|


                     3            |--3--|  3   
  T T T T T T T T E  X S T T T E  E  E  E  E   
--------1--------------0----------------------|
------3---3-----------------------------------|
----2-------2------------------2--------------|
--0-----------0--------------3----------------|
----------------0----------0------0-----0-----|
------------------0--L---0-----------0-----0--|


  |---3---| |3|  |--3--|  |--3--|  |-3-|  
  E  E  S S S E  E  E  E  E  E  E  S S S  
-----------------------------------------|
-----------------------------------------|
--------3-2-0-2--L-----------------3-2-0-|
--------3--------------------------3-----|
--0-----0---L----0-----0-----0-----0---L-|
-----0--------0-----0-----0-----0--------|


  |--3--|  |--3--|  |--3--|  |--3--|     |--3--|  |-3-| |--3--|  |--3--|  |-3|  
  E  E  E  E  E  E  E  E  E  E  E  E     E  E  E  S S S E  E  E  E  E  E  E  S  
--------------------------------------|----------------------------------------|
--------------------------------------|----------------------------------------|
--2--L--5-----4-----3-----2-----------|-----------3-2-0-2--L-----------------3-|
--------3-----3-----3-----3-----------|-----------3--------------------------3-|
-----0-----------0-----------0-----0--|-----0-----0---L----0-----0-----0-----0-|
--0--------0-----------0--------0-----|--0-----0--------0-----0-----0-----0----|


  |---3--|  |--3--|  |--3--|  |--3--|   
  S S E  E  E  E  E  E  E  E  E  E  E   
---------------------------------------|
------------3-----2--------------------|
--2-0-2--L--3-----3-----3-----2--------|
------------------------3-----3--------|
----L----0-----------0-----------0-----|
------0--------0-----------0--------0--|


  |--3--|  |--3--|  |--3--|  |----3---|  
  E  E  E  E  E  E  E  E  E  E  E  S  S  
----------------------------------------|
----------------------------------------|
-----------------1-----------0----------|
-----------------3-----------3-----3p-2-|
--0-----0-----0-----0-----0-----0-------|
-----0-----0-----------0-----------0----|


  |---3--|  |--3--|  |--3--|  |----3---|   
  S S E  E  E  E  E  E  E  E  E  E  S  S   
------------------------------------------|
------------------------------------------|
---------------------2--3--2--1-----------|
--0---0--------------3--3--3--3-----0h-2h-|
----4----0-----0-----0-----0-----0--------|
------------0-----0-----0-----0-----------|


  |-3-|  |--3--|  |--3-| |3|  |--3--|  |--3--|        
  S S S  S  S  S  S  S S S E  E  E  E  E  E  E     S  
------------------------------------------------|----|
------------------------------------------------|----|
----1-2p-1h-2p-1h-2p-1--------------------------|----|
--3--------------------3-2-0--------------------|----|
------------------------------0-----0-----0-----|--0-|
---------------------------------0-----0-----0--|----|


  |--3--|  |---3---|  |-3| |3|  |---3--|   
  E  E  E  E  E  S S  E  S S E  S S E  E   
------------------------------------------|
--------------3----5p-3-------------------|
-----0--2--2---------------2-2--L-0----0--|
--3--3--3--3------------------------3-----|
--0-----0--L-----0-L---------0------------|
--0--L--------0----------0----------0-----|


  |--3--|  |--3--|  |--3--|  |----3----|  
  E  E  E  E  E  E  E  E  E  S S  E  S S  
-----------------------------------------|
--------------------------3----5p-3------|
--2--L-----------0--2--2---------------2-|
--------------3--3--3--3-----------------|
--0--0-----0--0-----0--L-----0-L---------|
--------0-----0--L--------0----------0---|


  |-3| |3|  |--3--|  |--3--|  |--3--|     |--3--|  |--3--|  |-----3----|     
  E  S S E  E  E  E  E  E  E  E  E  E     E  E  E  E  E  E  E  E  Q    Q     
---------------------------------------|------------------------------------|
---------------------------3--5--3--1--|-----------------1------------------|
--2--L-0----0--2--L--------------------|--2--0-----0--2-----2--0------------|
---------3-----------------------------|--------3-----------------3---------|
--0------------0--0-----0--------0-----|--------0-----------0----------0----|
---------0-----------0-----0-----------|--0-----------0-----------0---------|


  |--3--|  |--3--|  |--3--|  |--3--|     |-------3------| |-3| |3|  |----3---|  
  E  E  E  E  E  E  E  E  E  E  E  E     Q    Q    E  S S E  S S E  S S E  S S  
--------------------------------------|----------------------------------------|
-----------1--3--5--3--1--------------|----------------------------------------|
-----0--2-----------------2--0-----0--|--2-------------------------------------|
--3-----------------------------3-----|----------------------------------------|
--------0-----------0-----------0-----|-------0---------0------0------0------0-|
--0-----------0-----------0-----------|--0---------3--3---2--2---3--3---0--0---|


  |-3| |3|  |----3---| |-3| |3|  |----3---|  
  E  S S E  S S E  S S E  S S E  S S E  S S  
--------------------------------------------|
--------------------------------------------|
--------------------------------------------|
--------------------------------------------|
-------0------0------0------0------0------0-|
--3--3---2--2---3--3---0--0---3--3---2--2---|


  |-3| |3|  |----3---| |-3| |3|  |----3---|  
  E  S S E  S S E  S S E  S S E  S S E  S S  
--------------------------------------------|
--------------------------------------------|
--------------------------------------------|
--------------------------------------------|
-------0------0------0------0------0------0-|
--3--3---0--0---3--3---5--5---7--7---7--7---|


   |--3-|  |--3--| |--3-| |-3-| |-3-| |--3--| |--3--|  |--3-|  
   S  S S  S  S  S S  S S S S S S S S S  S  S S  S  S  S S  S  
--------------------------------------------------------------|
--------------------------------------------------------------|
--------------------------------------------------------------|
-----12---12----11---11---8---8---7---7----12---12----11---11-|
--------0----------0--------0-------0---------0----------0----|
--12---------11---------8-------7-------12---------11---------|


  |-3-| |-3-| |-3-| |-3-| |-3-| |3|  |--3--|   
  S S S S S S S S S S S S S S S S E  E  E  E   
----------------------------------------------|
----------------------------------------------|
----------------------------------------------|
----8---8---7---7---5---5---3---3----0-----0--|
------0-------0-------0-------0---------0-----|
--8-------7-------5-------3-------0-----------|


  |--3--|  |--3--|  |--3--|  |--3--|     |-----------3----------|     
  E  E  E  E  E  E  E  E  E  E  E  E     E  E  W                Q     
--------------------------------------|------------------------------|
--------------------------------------|------------------------------|
--------------------------------------|------------------------------|
-----2-----2-----3-----3-----6-----6--|--------7---------------------|
--------0-----------0-----x-----0-----|-----0------------------------|
--2-----------3-----------6-----------|--7---------------------------|


  3  3  3  3  3  3  3  3  3  3  3  3  3  3  3  3   
  S. S. S. S. S. S. S. S. S. S. S. S. S. S. S. S.  
--------------------------------------------------|
-----------------------------------------2-----3--|
-----2-----2-----2-----2-----2-----3--------------|
--------2-----------2-----------2-----------2-----|
--0-----------0-----------0-----------0-----------|
--------------------------------------------------|


  3  3  3  3  3  3  3  3  3  3  3  3   
  S. S. S. S. S. S. S. S. S. S. S. S.  
-----0-----0-----0-----0-----0-----0--|
--------------------------------------|
--------------------------------------|
--------2-----------2-----------2-----|
--0-----------0-----------0-----------|
--------------------------------------|


  3  3  3  3  3  3  3  3  3  3  3  3  3  3  3  3   
  S. S. S. S. S. S. S. S. S. S. S. S. S. S. S. S.  
-----0-----0-----1-----4-----5-----4-----1-----0--|
--------------------------------------------------|
--------------------------------------------------|
--------2-----------3-----------3-----------3-----|
--0-----------0-----------0-----------0-----------|
--------------------------------------------------|


  3  3  3  3  3  3  3  3  3  3  3  3  3  3  3  3   
  S. S. S. S. S. S. S. S. S. S. S. S. S. S. S. S.  
-----------0-----1-----4-----1-----0-----------0--|
-----3-----------------------------------3--------|
--------------------------------------------------|
--------3-----------3-----------3-----------3-----|
--0-----------0-----------0-----------0-----------|
--------------------------------------------------|


  3  3  3  3  3  3  3  3  3  3  3  3  3  3  3  3   
  S. S. S. S. S. S. S. S. S. S. S. S. S. S. S. S.  
-----0-----0-----0-----0-----0-----0-----0-----0--|
--------------------------------------------------|
--------------------------------------------------|
--------2-----------2-----------2-----------2-----|
--0-----------0-----------0-----------0-----------|
--------------------------------------------------|


  3  3  3  3  3  3  3  3  3  3  3  3  3  3  3  3   
  S. S. S. S. S. S. S. S. S. S. S. S. S. S. S. S.  
--------------------------------------------------|
-----------------------------------------2-----3--|
-----2-----2-----2-----2-----2-----3--------------|
--------2-----------2-----------2-----------2-----|
--0-----------0-----------0-----------0-----------|
--------------------------------------------------|


  3  3  3  3  3  3  3  3  3  3  3  3   
  S. S. S. S. S. S. S. S. S. S. S. S.  
-----0-----0-----0-----0-----0-----0--|
--------------------------------------|
--------------------------------------|
--------2-----------2-----------2-----|
--0-----------0-----------0-----------|
--------------------------------------|


  3  3  3  3  3  3  3  3  3  3  3  3  3  3  3  3   
  S. S. S. S. S. S. S. S. S. S. S. S. S. S. S. S.  
-----0-----0-----1-----4-----5-----4-----1-----0--|
--------------------------------------------------|
--------------------------------------------------|
--------2-----------3-----------3-----------3-----|
--0-----------0-----------0-----------0-----------|
--------------------------------------------------|


  3  3  3  3  3  3  3  3  3   3   3   3                       3    3  
  S. S. S. S. S. S. S. S. E.  E.  E.  E.     E.  E.  E.  Q    Q    T  
-----------0-----1-----0------------------|--------------------------|
-----3------------------------3-------1---|--------------------------|
------------------------------------------|------3-------3-----------|
--------3-----------3-------------3-------|----------3---------------|
--0-----------0-----------0---------------|--0----------------0----L-|
------------------------------------------|-------------------x------|


  |-3-| |-3-| |-3-| |-3-| |-3-| |-3-| |-3-| |-3-| |-3-| |-3-| 3 3        3  
  T T T T T T T T T T T T T T T T T T T T T T T T T T T T T T T H        T  
--------0---------------0---------------0---------------0-----L------------|
------2---2-----------2---2-----------2---2-----------2---2-----L----------|
----2-------2-------2-------2-------2-------2-------2-------2---L----------|
--2-----------2---2-----------2---2-----------2---2-----------2-L----------|
----------------0---------------0---------------0---------------0--------L-|
---------------------------------------------------------------------------|


          ^            ^                                               
                                                       |-3-| |-3-|     
  T T T T Q    T T T T H           S  S S  S S  S Q    S S S S S Q     
--5-5-5-5-5----4-4-4-4-4--------|-------------------------------------|
----------2------------3--------|--3h-5-5h-6-6s-9-9----6-5-6-5-3-5----|
----------2------------3--------|-------------------------------------|
----------2------------3--------|-------------------------------------|
--------------------------------|-------------------------------------|
--------------------------------|-------------------------------------|


  |--3-| |-3-| |-3-| |-3-| |-3-| |-3-| |-3-| |-3-| |-3-| |-3-| |-3-| 3       
  E  T T T T T T T T T T T T T T T T T T T T T T T T T T T T T T T T Q.      
-------------3---------------3---------------3---------------3-----L--------|
-----------2---2-----------2---2-----------2---2-----------2---2-----L------|
---------2-------2-------2-------2-------2-------2-------2-------2---L------|
-------2-----------2---2-----------2---2-----------2---2-----------2-L------|
--0--L---------------0---------------0---------------0---------------0------|
----------------------------------------------------------------------------|


          ^                ^     
  T T T T Q    S  E  S  E  Q     
--5-5-5-5-5----6s-5--5s-4--4----|
----------2----------------3----|
----------2----------------3----|
----------2----------------3----|
--------------------------------|
--------------------------------|


  S  S S  S S  S T T T T T T T T T T T T T T T T E   
----------------------------------------------------|
--3h-5-5h-6-6s-9-9-9-9-9-9-9-9-9-9-9-9-9-9-9-9-9-9--|
----------------------------------------------------|
----------------------------------------------------|
----------------------------------------------------|
----------------------------------------------------|


  S  S S  S S   S.S.  H         
-------------------------------|
--5h-6-6h-9-9h-10----10--------|
-------------------------------|
-------------------------------|
------------------0------------|
-------------------------------|


    |-3-|       |-3-|       |-3-|       |-3-|      
  S T T T S S S T T T S S S T T T S S S T T T S S  
--------0-----------0-----------0-----------0-----|
------3-----3-----3-----------3-----3-----3-------|
----2-------2---2-----------2-------2---2---------|
--0-------3---2---------2-0-------3---2---------2-|
----------------------4-----------------------4---|
--------------------------------------------------|


                                         ^    ^    ^    ^    ^    ^  
    |-3-|                                                            
  S T T T S S S S S S S S S S S S S S    E  S E  S E  S E  S E  S S  
--------0-------3-------1-------0-----|-----1----1----0----0----1---|
------3---------3-------3-------3-----|--3----3----2----2----3----3-|
----2-------2-0---3-0-2-----2-0-2-----|--2----2----3----3----2----2-|
--0-------3---------------3-------3-2-|--0----3----2----2----0----3-|
--------------------------------------|--0----0----0----4----0----0-|
--------------------------------------|--x----x----x----x----x----x-|


  ^   ^    ^    ^    ^    ^       ^    ^    ^    ^    ^     
  S S E  S E  S E  S E  S E     S E  S E  S E  S E  S E  S  
----1----0----0----1----1-3--|--3-3--3-1--1-1--1----0----0-|
--L---2----2----3----3----3--|----3----3----3----2----2----|
--L---3----3----2----2----0--|----3----2----2----3----3----|
--L---2----2----0----3----0--|----0----0----3----2----2----|
--L---0----4----0----0-------|-------------------0----4----|
--L---x----x----x----x----x--|----x----x----x----x----x----|


                           |-3-| |-3-|  
  T T T T T T T T H        S S S S S S  
--------1------------------1-1-1-1-1-1-|
------3---3----------------------------|
----2-------2--------------------------|
--0-----------0------------------------|
----------------0------------------0---|
------------------0--------0-----------|


  |-3-| |-3-| |-3-| |-3-| |-3-| |-3-| |-3-| |-3-|  
  S S S S S S S S S S S S S S S S S S S S S S S S  
--1-1-1-1-1-1-3-3-3-3-5-5-5-5-5-5-5-5-5-5-5-5-5-5-|
--------------------------------------------------|
--------------------------------------------------|
--------------------------------------------------|
--------------0---------------0---------------0---|
------0---------------0---------------0-----------|


  |-3-| |-3-| |-3-| |-3-| |-3-| |-3-| |-3-| |-3-|  
  S S S S S S S S S S S S S S S S S S S S S S S S  
--5-5-1-1-1-1-1-1-1-1-1-1-1-1-3-3-3-3-5-5-5-5-5-5-|
--------------------------------------------------|
--------------------------------------------------|
--------------------------------------------------|
------------------------------0---------------0---|
------0-------0-------0---------------0-----------|


  |-3-| |-3-| |-3-| |--3--|  |--3--|  |--3--| |-3-| |-3-|  
  S S S S S S S S S S  S  S  S  S  S  S  S  S S S S S S S  
--5-5-5-5-5-5-5-5-5-5-10-10-10-10-10-10-10-10-9-9-9-9-6-6-|
----------------------------------------------------------|
----------------------------------------------------------|
------0---------------------------------------------------|
--------------0--------------------0------------------0---|
-----------------------0----------------------0-----------|


  |-3-| |-3-| |-3-| |-3-| |-3-| |-3-|  |--3--|  |--3--|  
  S S S S S S S S S S S S S S S S S S  S  S  S  S  S  S  
--6-6-5-5-5-5-5-5-5-5-5-5-5-5-6-6-9-9-10-10-10-10-10-10-|
--------------------------------------------------------|
--------------------------------------------------------|
----------------------0---------------------------------|
--------------0---------------0--------------------0----|
------0--------------------------------0----------------|


   |--3-| |-3-| |-3-| |-3-| |-3-| |-3-| |-3-| |-3-|  
   S  S S S S S S S S S S S S S S S S S S S S S S S  
--10-10-9-9-9-9-6-6-6-6-5-5-5-5-5-5-5-5-5-5-5-5-5-5-|
----------------------------------------------------|
----------------------------------------------------|
----------------------------------------0-----------|
----------------0---------------0---------------0---|
--------0---------------0---------------------------|


  |-3-| |-3-| |-3-| |-3-| |-3-| |-3-| |-3-| |-3-|  
  S S S S S S S S S S S S S S S S S S S S S S S S  
--5-5-4-4-4-4-4-4-4-4-1-1-1-1-4-4-4-4-5-5-5-5-5-5-|
--------------------------------------------------|
--------------------------------------------------|
--------------------------------------------------|
--------------0---------------0---------------0---|
------0---------------0---------------0-----------|


  |-3-| |-3-| |-3-| |-3-| |-3-| |-3-| 3  3  3  3   
  S S S S S S S S S S S S S S S S S S S. S. S. S.  
--5-5-5-5-5-5-5-5-5-5-4-4-4-4-4-4-4-4-1--4--1--0--|
--------------------------------------------------|
--------------------------------------------------|
------0-------------------------------------------|
--------------0---------------0-------------------|
----------------------0---------------0-----------|


    |-3-|       |-3-|       |-3-|       |-3-|      
  S T T T S S S T T T S S S T T T S S S T T T S S  
--------0-----------0-----------0-----------0-----|
------3-----3-----3-----------3-----3-----3-------|
----2-------2---2-----------2-------2---2---------|
--0-------3---2---------2-0-------3---2---------2-|
----------------------4-----------------------4---|
--------------------------------------------------|


                                         ^    ^    ^    ^    ^    ^  
    |-3-|                                                            
  S T T T S S S S S S S S S S S S S S    E  S E  S E  S E  S E  S S  
--------0-------3-------1-------0-----|-----1----1----0----0----1---|
------3---------3-------3-------3-----|--3----3----2----2----3----3-|
----2-------2-0---3-0-2-----2-0-2-----|--2----2----3----3----2----2-|
--0-------3---------------3-------3-2-|--0----3----2----2----0----3-|
--------------------------------------|--0----0----0----4----0----0-|
--------------------------------------|--x----x----x----x----x----x-|


  ^   ^    ^    ^    ^    ^       ^    ^    ^    ^    ^     
  S S E  S E  S E  S E  S E     S E  S E  S E  S E  S E  S  
----1----0----0----1----1-3--|--3-3--3-1--1-1--1----0----0-|
--L---2----2----3----3----3--|----3----3----3----2----2----|
--L---3----3----2----2----0--|----3----2----2----3----3----|
--L---2----2----0----3----0--|----0----0----3----2----2----|
--L---0----4----0----0-------|-------------------0----4----|
--L---x----x----x----x----x--|----x----x----x----x----x----|


                           |-3-| 3 3 3   3   
  T T T T T T T T H        T T T T T E.  T   
--------1----------------------------1---L-||
------3---3------------------------3-L---L-||
----2-------2--------------------2---L---L-||
--0-----------0----------------0-----L---L-||
----------------0------------0-------L---L-||
------------------0--------0---------L---L-||




Duration Legend
---------------
W - whole
H - half
Q - quarter
E - 8th
S - 16th
T - 32nd
X - 64th
. - note dotted
|-n-|  - n-tuplets


Tablature Legend
----------------
L - tied note
x - dead note
g - grace note
(n) - ghost note
> - accentuded note
NH - natural harmonic
AH - artificial harmonic
TH - tapped harmonic
SH - semi harmonic
PH - pitch harmonic
h - hammer on
p - pull off
b - bend
br - bendRelease
pb - preBend
pbr - preBendRelease
brb - bendReleaseBend
\n/ - tremolo bar dip
\n - tremolo bar dive
-/n - tremolo bar Release up
/n\ - tremolo bar inverted dip
/n - tremolo bar return
-\n - tremolo bar Release down
S - shift slide
s - legato slide
/ -  slide into from below or out of upwards
\ -  slide into from above or out of downwards
~ - vibrato
W - wide vibrato
tr - trill
TP - tremolo picking
T - tapping
S - slap
P - pop
< - fade in
^ - brush up
v - brush down

Tap to rate this tab
 
# A B C D E F G H I J K L M N O P Q R S T U V W X Y Z