Guitaretab - guitar tabs
Song name
# A B C D E F G H I J K L M N O P Q R S T U V W X Y Z
Home / S / Sabre / Untitled tab

Sabre - Untitled tab

BAND - žABRE
TRACK - UNTITLED
ALBUM - WANNA PUDDING
GENRE - HEAVY METAL
KEYS: '=' LET RING, '/' SLIDE UP TO WHERE EVER, '\' SLIDE DOWN TO WHERE EVER
NOTE - BASS AND GUITAR TABS FOR THIS TRACK HAVE BEEN TABBED

GUITAR ONE TABS

INTRO
STATE - DISTORTION - 10%
A]-1--1-3-4-6-5-6-0-1-3-4=====-|

VERSE
STATE - DISTORTION - 100%
A]------------------------------------|
E]-1--1-1-1-1--3--3-3-3-3--5--5-5-5-5-|

BRIDGE
STATE - DISTORTION - 60%
D]-7-7-7-7\6-6-6-6-|
A]-5-5-5-5\4-4-4-4-|
E]-7-7-7-7\6-6-6-6-|

OUTRO
STATE - DISTORTION - 50%
G]-3--3-3-3--5--5-5-5--3--3-3-2-3-|

G]-6--6-6-6--8--8-8-8--6--6-6-5-6-|


GUITAR TWO TABS

INTRO
STATE - DISTORTION - 75%
D]-9--9-9-9-9--9--9-9-9-9--9--9-9-9-9-|
A]-9--9-9-9-9--9--9-9-9-9--8--8-8-8-8-|
E]-7--7-7-7-7--6--6-6-6-6--5--5-5-5-5-|

VERSE
STATE - DISTORTION - 20%
D]-9--9-9-9-9--9--9-9-9-9--9--9-9-9-9-|
A]-9--9-9-9-9--9--9-9-9-9--8--8-8-8-8-|
E]-7--7-7-7-7--6--6-6-6-6--5--5-5-5-5-|

CHORUS
STATE - DISTORTION - 75%
A]------------------|
E]-2-3-2-1-2-3-2-//-|
[ Tab from: http://www.guitaretab.com/s/sabre/120346.html ]
SOLO
STATE - DISTORTION - 50%
B]----------4-3----------------------------4-|
G]-1--1-3-4-----4-3-1--1-3-4-6-4-3-1-0-1-3---|

B]-------------------------------------|
G]-4-3-1-0-1-3-4-6-5-6-0-1-3-4-0-3-0-1-|


GUITAR THREE TABS

INTRO
STATE - DISTORTION - 90%
A]------------------------------------|
E]-1--1-1-1-1--3--3-3-3-3--5--5-5-5-5-|

CHORUS
STATE - DISTORTION - 00%
G]-3--3-3-3--5--5-5-5--3--3-3-2-3-|

G]-6--6-6-6--8--8-8-8--6--6-6-5-6-|

OUTRO
STATE - DISTORTION - 100% 
D]-9--9-9-9-9--9--9-9-9-9--9--9-9-9-9-|
A]-9--9-9-9-9--9--9-9-9-9--8--8-8-8-8-|
E]-7--7-7-7-7--6--6-6-6-6--5--5-5-5-5-|


BASS GUITAR TABS

VERSE
STATE - DISTORTION - 50%
A]----------------------------|
E]-2-2--2-2-2-2--4-4--4-4-4-4-|

A]-2-2--2-2-2-2--4-4--4-4-4-4---|
E]----------------------------3-|

CHORUS
STATE - DISTORTION - 100%
A]-9--9-9-9-9--9--9-9-9-9--8--8-8-8-8-|
E]-7--7-7-7-7--6--6-6-6-6--5--5-5-5-5-|

BRIDGE
STATE - DISTORTION - 00%
A]-5-5-5-5\4-4-4-4-|
E]-7-7-7-7\6-6-6-6-|

THIS IS 100% CORRECT! SO LIVE WITH IT!
Related for Untitled tab