Guitaretab - guitar tabs
Song name
# A B C D E F G H I J K L M N O P Q R S T U V W X Y Z
Home / S / Sabre / Forsaken tab

Sabre - Forsaken tab

FORSAKEN
žABRE

INTRO - x2
A]------5-5-5-5-6-5-------6-6-6-6-5-6-|
E]-5--5--------------5--5-------------|

INTRO
A]-5--5--5-5-5-5-6-5---5--5-6-6-6-6-5-6-|
E]-5--5--5-5-5-5-6-5---5--5-6-6-6-6-5-6-|

INTRO - x2
A]------------------------6-5-3-5-|
E]-5--5--6-5-3-5-----5--5---------|

VERSE
D]-------------6-5-|
A]------5-5--------|
E]-5--5------------|

CHORUS
A]------5-5-5-5-6-5-------6-6-6-6-5-6-|
E]-5--5--------------5--5-------------|

SOLO BUILD-UP
D]---------------------------------|
A]-7-7--7-8-7-8--9-9--10-11--11-11-|
E]-7-7-----------9-9---------11-11-|
[ Tab from: http://www.guitaretab.com/s/sabre/120395.html ]
SOLO
E]-12-13-12-13-------------------------|
B]-------------12-13-12-13-------------|
G]-------------------------12-13-12-13-|

E]-------------13-12-13-12------------|
B]-13-12-13-12----------------13^^^---|
G]------------------------------------|

E]----------------------------|
B]-13\9--9\7--7\5--5-3-5/7~-0-|
G]----------------------------|

E]----------------------------|
B]-5-3-0--5-3-0--5-3-2--5-3-2-|
G]----------------------------|

E]------------------------------------|
B]-3-5-0--3-5-0--3-5-0--3-5-0--5-3-0~-|
G]------------------------------------|


"ICH MUSSEN ERMORDEN MESCHHEIT"
Related for Forsaken tab