Song name
# A B C D E F G H I J K L M N O P Q R S T U V W X Y Z

Saccharine Trust - A Human Certainty tab

Artist: Saccharine Trust
Song: "A Human Certainty"
Album: Paganincons (1981), V/A - The Blasting Concept (1983)

http://www.allmusic.com/artist/saccharine-trust-mn0000828125/biography



Tuning: Standard



Intro I:
e|------------------------------------------------|
B|------------------------------------------------|
G|------------------------------------------------|
D|------------------------------------------------|
A|------------------------------------------------|
E|-8--8--8--8--8--8--8--8--8--8--8--8--8--8--8--8-|
+
e|------------------------------------------------|
B|------------------------------------------------|
G|------------------------------------------------|
D|------------------------------------------------|
A|------------------------------------------------|
E|-7--7--7--7--7--7--7--7--7--7--7--7--7--7--7--7-|



Intro II:
e|------------------------------------------------|
B|------------------------------------------------|
G|------------------------------------------------|
D|------------------------------------------------|
A|------------------------------------------------|
E|/12-12-12-12-12-12-12-12-12-12-12-12-12-12-12-12|
+
e|------------------------------------------------|
B|------------------------------------------------|
G|------------------------------------------------|
D|------------------------------------------------|
A|------------------------------------------------|
E|-11-11-11-11-11-11-11-11-11-11-11-11-11-11-11-11|



Intro III:
e|-12----------------------12(12)-----------------|
B|----13----------------------13------------------|
G|------------------------------------------------|
D|------------------------------------------------|
A|------------------------------------------------|
E|------------------------------------------------|
+
e|------------------------------------------------|
B|-12(12)------------------12---------------------|
G|----12----------------------12------------------|
D|------------------------------------------------|
A|------------------------------------------------|
E|------------------------------------------------|



Intro IV:
e|------------------------------------------------|
B|------------------------------------------------|
G|------------------------------------------------|
D|------------------------------------------------|
A|------------------------------------------------|
E|-x--x\----x--x\----x--x\----x--x\----x--x\----x-|
+
e|------------------------------------------------|
B|------------------------------------------------|
G|------------------------------------------------|
D|------------------------------------------------|
A|------------------------------------------------|
E|-x\----x--x\----x--x\----x--x\----x--x\----x\---|



Intro V:
e|-2--2--2--2--2--2--2--2--2--2--2--2--2--2--2--2-|
B|-1--1--1--1--1--1--1--1--1--1--1--1--1--1--1--1-|
G|-0--0--0--0--0--0--0--0-------------------------|
D|------------------------------------------------|
A|------------------------------------------------|
E|------------------------------------------------|
+
e|-------0--0------------------0-0--0-------------|
B|----3--------3--3----------3-----(3)-3--3-------|
G|-1-----------------1--1--1----------(1)(1)-1--1-|
D|------------------------------------------------|
A|------------------------------------------------|
E|------------------------------------------------|
+
e|-------2--------2--------2--------2--------2----||
B|-0--------1-----------1--------1--------1-------||
G|------------------------------------------------|| x 8
D|------------------------------------------------||
A|------------------------------------------------||
E|------------------------------------------------||



Verse I:
e|------------------------------------------------|
B|-3--3--3--3--3--3--3--3--3--3--3--3--3--3--3--3-|
G|-4--4--4--4--4--4--4--4--4--4--4--4--4--4--4--4-|
D|-5--5--5--5--5--5--5--5--5--5--5--5--5--5--5--5-|
A|-5--5--5--5--5--5--5--5--5--5--5--5--5--5--5--5-|
E|-3--3--3--3--3--3--3--3--3--3--3--3--3--3--3--3-|
+
e|------------------------------------------------|
B|-1--1--1--1--1--1--1--1--1--1--1--1--1--1--1--1-|
G|-2--2--2--2--2--2--2--2--2--2--2--2--2--2--2--2-|
D|-3--3--3--3--3--3--3--3--3--3--3--3--3--3--3--3-|
A|-3--3--3--3--3--3--3--3--3--3--3--3--3--3--3--3-|
E|-1--1--1--1--1--1--1--1--1--1--1--1--1--1--1--1-|
+
e|------------------------------------------------|
B|/5--5--5--5--5--5--5--5--5--5--5--5--5--5--5--5-|
G|/5--5--5--5--5--5--5--5--5--5--5--5--5--5--5--5-|
D|/5--5--5--5--5--5--5--5--5--5--5--5--5--5--5--5-|
A|/3--3--3--3--3--3--3--3--3--3--3--3--3--3--3--3-|
E|------------------------------------------------|
+
e|------------------------------------------------|
B|\4--4--4--4--4--4--4--4--4--4--4--4--4--4--4--4-|
G|\4--4--4--4--4--4--4--4--4--4--4--4--4--4--4--4-|
D|\4--4--4--4--4--4--4--4--4--4--4--4--4--4--4--4-|
A|\2--2--2--2--2--2--2--2--2--2--2--2--2--2--2--2-|
E|------------------------------------------------|



Chorus:
e|------------------------------------------------|
B|/7--7--7--7--7--7--7--7-\5--5--5--5--5--5--5--5-|
G|/7--7--7--7--7--7--7--7-\5--5--5--5--5--5--5--5-|
D|/7--7--7--7--7--7--7--7-\5--5--5--5--5--5--5--5-|
A|/5--5--5--5--5--5--5--5-\3--3--3--3--3--3--3--3-|
E|------------------------------------------------|
+
e|------------------------------------------------|
B|\4--4--4--4--4--4--4--4--4--4--4--4--4--4--4--4-|
G|\4--4--4--4--4--4--4--4--4--4--4--4--4--4--4--4-|
D|\4--4--4--4--4--4--4--4--4--4--4--4--4--4--4--4-|
A|\2--2--2--2--2--2--2--2--2--2--2--2--2--2--2--2-|
E|------------------------------------------------|



Verse II:
e|------------------------------------------------|
B|(0)------------(0)------(0)------(0)------(0)---|
G|(0)----11(0)----11-------11-------11-------11---|
D|-9--------9-----------9--------9--------9-------|
A|------------------------------------------------|
E|------------------------------------------------|
+
e|------------------------------------------------|
B|(0)---------------------------------------------|
G|(0)----9-(0)----9----(0)-9----(0)-9----(0)-9--0-|
D|-7--------7-----------7--------7-(7)----7-(7)---|
A|------------------------------------------------|
E|------------------------------------------------|
+
e|-10-9--------------------10-9-------------------|
B|-------10-9--8-----------------10-9--8----------|
G|----------------10----------------------10------|
D|-------------------10-8--------------------10-8-|
A|------------------------------------------------|
E|------------------------------------------------|
+
e|-8--7--------------------8--7-------------------|
B|-------8--7--6-----------------8--7--6----------|
G|----------------8-----------------------8-------|
D|-------------------8--6--------------------8--6-|
A|------------------------------------------------|
E|------------------------------------------------|



Outro I:
e|(0)---------------------------------------------|
B|-10-10-10-10-10-10-10-10-10-10-10-10-10-10-10-10|
G|-9--9--9--9--9--9--9--9--9--9--9--9--9--9--9--9-|
D|------------------------------------------------|
A|------------------------------------------------|
E|------------------------------------------------|
+
e|------------------------------------------------|
B|-8--8--8--8--8--8--8--8--8--8--8--8--8--8--8--8/|
G|-7--7--7--7--7--7--7--7--7--7--7--7--7--7--7--7/|
D|-0--0--0--0--0--0--0--0--0--0--0--0--0--0--0--0-|
A|------------------------------------------------|
E|------------------------------------------------|



Outro II:
e|(0)-------0-----------------------------0-------|
B|(10)---10(10)------------------10-------x-------|
G|-9--------9-----9-(9)(9)-9--------9-----9-(9)-9-|
D|------------------------------------------------|
A|------------------------------------------------|
E|------------------------------------------------|
+
e|------------------------------------------------|
B|-------------8--x--------------8--x--8--x--8--x-|
G|(7)----------7--x-(7)----------7--x--7--x--7--x-|
D|-0--0--0--0--x--x--0--0--0--0--x--x--x--x--x--x-|
A|------------------------------------------------|
E|------------------------------------------------|



Outro II (alternate):
e|------------------------------------------------|
B|----------10-------------------10---------------|
G|-9-----9--------9--9-----9--------9-----9--9--9-|
D|------------------------------------------------|
A|------------------------------------------------|
E|------------------------------------------------|
+
e|------------------------------------------------|
B|-------------8--x--------------8--x--8--x--8--x-|
G|(7)----------7--x-(7)----------7--x--7--x--7--x-|
D|-0--0--0--0--x--x--0--0--0--0--x--x--x--x--x--x-|
A|------------------------------------------------|
E|------------------------------------------------|



Final Bar:
e|------------------------------------------------|
B|-10-x-------------------------------------------|
G|-9--x-------------------------------------------|
D|------------------------------------------------|
A|------------------------------------------------|
G|------------------------------------------------|



Song Structure:
Intro I x 2
Intro II
Intro III x 2
Intro IV
Intro V
Verse I x 2
Chorus x 2
Intro I x 2
Verse II x 2
Chorus x 2
Intro III x 2
Outro I x 3
Outro II x 5
Outro II (alternate) x 7
Final Bar



That's it.  Please leave any comments, questions, or requests.  Cheers!
-Bennyshambles78-
Tap to rate this tab
# A B C D E F G H I J K L M N O P Q R S T U V W X Y Z