Song name
# A B C D E F G H I J K L M N O P Q R S T U V W X Y Z

Sacred Inferno - Premenitions tab

e|-------------------------------------------------------------|
B|-------------------------------------------------------------|
G|-------------------------------------------------------------|
D|-------6h7-------6h7-------6h7-------6h7---------------------|
A|-------------5---------5---------5---------------------------|
E|---0---------------------------------------0-----------------|


e|-------------------------------------------------------------|
B|----------------------------------0--------------------------|
G|-----------------------------9-------------------------------|
D|--6h7-------6h7-------6h7------------------------------------|
A|--------5---------5------------------------------------------|
E|-------------------------------------------------------------|


e|-------------------------------------------------------------|
B|-------------------------------------------------------------|
G|-------------------------------------------------------------|
D|-------6h7-------6h7-------6h7-------6h7---------------------|
A|-------------5---------5---------5---------------------------|
E|---0---------------------------------------0-----------------|


e|-------------------------------------------------------------|
B|----------------------------------9--------------------------|
G|-----------------------------0-------------------------------|
D|--6h7-------6h7-------6h7------------------------------------|
A|--------5---------5------------------------------------------|
E|-------------------------------------------------------------|
Tap to rate this tab
# A B C D E F G H I J K L M N O P Q R S T U V W X Y Z