Guitaretab - guitar tabs
Song name
# A B C D E F G H I J K L M N O P Q R S T U V W X Y Z

Sacred Reich - Crawling tab

1)--------------------------|-----------------------------------------------|
2)--------play-8x-----------|-------play-3----------------------------------|
3)--------------------------|-----------------------------------------------|
4)-----------------------5-7|--9-7---5-3---3---3---3-3----------------------|
5)-----------------------5-7|--7-5---3-1---1---1---1-1----------------------|
6)00-3p0-3v-0-3p0-3v-3p0-3-5|00----0-----0---0---0--------------------------|
  xx        x                xx    x     x   x   x
1)----------------------------|---------------------------------------------|
2)---------play-6x------------|------on-3rd-time----------------------------|
3)----------------------------|---------------------------------------------|
4)---5-5------------------5-5-|---5-5---7-7---------------------------------|
5)---5-5--2-2-3-3-4-4-2---5-5-|---5-5---7-7---------------------------------|
6)0003-3--0-0-1-1-2-2-0-0-3-3-|00-3-3-0-5-5---------------------------------|
  xxx     x x x x x x x x      xx     x
1)--------------------------|-----------------------------------------------|
2)------play-3x-------------|----------------play-4x------------------------|
3)--------------------------|-----------------------------------------------|
4)---9-7---5-3---3---3---3-3|-------------------------5-7-------------------|
5)---7-5---3-1---1---1---1-1|-------------------------5-7-------------------|
6)00-----0-----0---0---0----|00-3p0-3v-0-3p0-3v-0-3p0-3-5-------------------|
  xx     x     x   x   x     xx        x        x
1)------------------|-------------------------------------------------------|
2)--pre-solo-play-4x|---------During-solo-and-after-play-10x----------------|
3)------------------|---------------------3---------------------------------|
4)------------------|---------4/5-5----3-5--5-3---5/6-5-3-------------------|
5)3-3-2-------------|---------2/3-3---------------3/4-3-1-------------------|
6)1-1-0-------------|1v-3v-00-------00----------0---------------------------|
                           xx       xx          x
1)------------------------------|
2)---the-second-time-you--------|
3)---play-after-the-solo-do-this|
4)---9-7---5-3------------------|
5)---7-5---3-1------------------|
6)00-----0-----00000000---------|
  xx     x     xxxxxxxx
1)--------------------------------------------------------------------------|
2)--------------play-3x-then-fade-end-on-5th-time---------------------------|
3)--------------------------------------------------------------------------|
4)--6-------------6--------------6-------------6----------------------------|
5)5-4-5---------5-4-5----------5-4-5---------5-4-5---5p4-3v-----------------|
6)3---3-0123210-3---3-3-5-4-3v-3---3-0123210-3---3-0------------------------|
        xxxxxxx                      xxxxxxx       x

p=pull off
h=hammer on
v=vibroto
x=palm mute
/=slide up
\=slide down

There it is Crawling by Sacred Reich im not sure if its 100% accurate but its at least 
accurate.
[ Tab from: http://www.guitaretab.com/s/sacred-reich/160326.html ]
Related for Crawling tab