Song name
# A B C D E F G H I J K L M N O P Q R S T U V W X Y Z

Sacred Reich - Free tab

Band:Sacred Reich
Song:Free
Album:Independant

Intro:
e---------------------------------------------------------------------------|
b---------------------------------------------------------------------------|
g---------------------------------------------------------------------------|
d-4xx-4----------4/7-77-4xx-4----------4/7-77-2R2--------2R2---2-3-4xx-4----|
a-4xx-4----------4/7-77-4xx-4----------4/7-77-2R2--------2R2---2-3-4xx-4----|
e-2xx-2-22222222-2/5-55-2xx-2-22222222-2/5-55-0R0-000000-0R0-0-0-1-2xx-2----|
        ********              ********            ******     *
e---------------------------------|
b---------------------------------|
g---------------------------------|
d---------------------------------|
a---------------------------------|
e-2222222222----------------------|
  **********
Verse:
e---------------------------------------------------------------------------|
b---------------------------------------------------------------------------|
g---------------------------------------------------------------------------|
d-2-3-4xx-4----------4/7-77-4xx-4----------4/7-77-2R2--------2R2---2-3-4xx--|
a-2-3-4xx-4----------4/7-77-4xx-4----------4/7-77-2R2--------2R2---2-3-4xx--|
e-0-1-2xx-2-22222222-2/5-55-2xx-2-22222222-2/5-55-0R0-000000-0R0-0-0-1-2xx--|
            ********              ********            ******
e-------------------|
b-------------------|
g-------------------|
d-4----------4/7----|
a-4----------4/7----|
e-2-22222222-2/5----|
    ********
Pre-Verse
e---------------------------------------------------------------------------|
b---------------------------------------------------------------------------|
g---------------------------------------------------------------------------|
d-7R7\-5R5\-2-3---4---4---4---4-4/7R7\-5R5\-2-3---4---4---4---4-------------|
a-7R7\-5R5\-2-3---4---4---4---4-4/7R7\-5R5\-2-3---4---4---4---4-------------|
e-5R5\-3R3\-0-1-222-222-222-222-2/5R5\-3R3\-0-1-222-222-222-222-------------|
                **  **  **  **                  **  **  **  **
then play Verse
then pre-verse becomes pre-chorus/chorus just play it twice

Solo:
e------------------------10-9-7h9p7--------------12--------15fb-15-12-15p12-|
b---/  hold \-----------------------10-----------15fb-15fb------------------|
g5fb-55555555-r5p3-5-9fb---------------9fbrfbrp7\---------------------------|
d---------------------------------------------------------------------------|
a---------------------------------------------------------------------------|
e---------------------------------------------------------------------------|

e-----------------------------------------------------------------2---------|
b-15fb-12h15p12-----------------14-12-----------------------------2---------|
g---------------14fb\-/14----12-14-12------------5fb-rp3p0----4fb---4p2~----|
d-------------------------14----------14-14\-3-3-----------2-2--------------|
a---------------------------------------------------------------------------|
e---------------------------------------------------------------------------|
                                       tr--|       tr--|
e------12------12------12------12------12h15----12---------------------------|
b-15fb----15fb----15fb----15fb----15fb-------15----12h15---------------------|
g--------------------------------------------------------14fb-12~\-----5-----|fb-r
d------------------------------------------------------------------3-3-------|
a----------------------------------------------------------------------------|
e----------------------------------------------------------------------------|

e--------------------------------------------------------------------12h15p-|
b--------------------------------------------------12h15p12----12-15--------|
g-p3p0-----4fb-------------12----12h14p12----12-14----------14--------------|
d------2-2-----12h14p12-14----14----------14--------------------------------|
a---------------------------------------------------------------------------|
e---------------------------------------------------------------------------|

e(p)12----12-15fb-15fb-15fb-15fb-15fb-15fb-15fb-15fb-12h15p12---------------|
b------15----------------------------------15fb---------------15fb-12h15p12-|
g---------------------------------------------------------------------------|
d---------------------------------------------------------------------------|
a---------------------------------------------------------------------------|
e---------------------------------------------------------------------------|
       /play 5 y\t
e------------------12h15p12----12h15p12-15fb-12h15p12h15p12------------------|
b---------12h15p12----------15------------------------------15fb-15fb-12h15p-|
g-14fb~14--------------------------------------------------------------------|
d----------------------------------------------------------------------------|
a----------------------------------------------------------------------------|
e----------------------------------------------------------------------------|

e---------------------------------------15fb--|
b(p)12----------------------------15-15-------|
g------------12-------12-------12-------------|END SOLO
d------14-14----14-14----14-14----------------|
a---------------------------------------------|
e---------------------------------------------|

play verse riff
the pre chorus/chorus riff twice

then
outro riff
e---------------------------------------------------------------------------|
b---------------------------------------------------------------------------|
g---------------------------------------------------------------------------|
d-4---4---4-4---4---4-7---7---7-7---7---7-5---5---5-5---5---5-9---9---9-9---|
a-4---4---4-4---4---4-7---7---7-7---7---7-5---5---5-5---5---5-9---9---9-9---|
e-2-2-2-2-2-2-2-2-2-2-5-5-5-5-5-5-5-5-5-5-3-3-3-3-3-3-3-3-3-3-7-7-7-7-7-7-7-|
    *   *     *   *     *   *     *   *     *   *     *   *     *   *     *
e-----------|
b-----------|
g-----------|
d-9---9-2-3-|
a-9---9-2-3-|Repeat once more
e-7-7-7-0-1-|
    *   * *
3rd Verse riff
e---------------------------------------------------------------|
b---------------------------------------------------------------|
g---------------------------------------------------------------|repeat twice
d-4-------------7-------------5-------------9-------------2-3-4-|
a-4-------------7-------------5-------------9-------------2-3-4-|
e-2-22222222222-5-55555555555-3-33333333333-7-77777777777-0-1-2-|
    ***********   ***********   ***********   *********** * *
then small solo
e---------------------12---15fb-15fb-15fb-----------------------------------|
b---------------------15fb----------------15--------------------------------|
g-9fb-7~--9fb-9-9-7--------------------------/14----12-14-12~---------------|
d-------7-----------9----------------------------14-----------14-14~\-------|
a---------------------------------------------------------------------------|
e---------------------------------------------------------------------------|

then 3rd verse riff 4 times

Outro /15 times\
e-12------------------------------|
b-15fb----------------------------|
g---------------------------------|
d------------------3-3~~~~--------|
a------------------3-3~~~~--------|
e------------------1-1~~~~--------|


there you have it its pretty damn close the only things thats off at all is the solo im 
sure but its damn good

Legend:
fb=Full bend
*=palm mute
/=slide up
\-slide down
~=vibrato
R=rest
r-release
P=pull of
h=hammer on
tr=trill
x=scratch

so there it is Free by Sacred Reich this song is awesome and just sounds great so play 
hell out of it!
                                 /Gus\
Tap to rate this tab
# A B C D E F G H I J K L M N O P Q R S T U V W X Y Z