Song name
# A B C D E F G H I J K L M N O P Q R S T U V W X Y Z

Sacred Reich - Death Squad tab

Band:  Sacred Reich
Album: Ignorance
Song:  Death Squad

Copyright (c)  (Roadrunner) (1987)
Version 1.0 - (03/05/06)

Transcribed By: Steve
Email:          stephen.elvidge1@ntlworld.com


.  - palm mute           /  - slide up to
\  - slide down to       ~  - vibrato
h  - hammer on           b  - Bend
p  - pull off            Suffixes for bend
t  - tap                 f  - full bend    h - half bend
ph - pinched harmonic    q  - quarter bend t - tap bend
                         p  - pre bend
*  - see comment         ^  - Hold bend    r release bend
x  - Stuccatto           ~  - vibrato bend
,  - slight palm mute    () - ghost note, sustained note
"  - tremolo note        <> - harmonic

Tuning E A D G B E

 Intro

 [PM]   [PM]  PM                PM [PM]   PM  [-PM--]
|-------------------------------------------------------------|
|-------------------------------------------------------------|
|-----------------4-------------------------------------------|
|-----------------2-3---6---4-------------------------6\5\3\2-|
|-2-2-3-2-2-3-2-3---1-x-4-5\2-3-2-3-2-2-3-2-3-2-2-2-2-6\5\3\2-|
|-0-0-1-0-0-1-0-1---------3\--1-0-1-0-0-1-0-1-0-0-0-0---------|


 Guitar fill
|------|
|------|
|------|
|------|
|-8\---|
|-8\---|

 [PM]   [PM]  PM                PM [PM]   PM  [-PM--]
|-------------------------------------------------------------|
|-------------------------------------------------------------|
|-----------------4-------------------------------------------|
|-----------------2-3---6---4-------------------------6\5\3\2-|
|-2-2-3-2-2-3-2-3---1-x-4-5\2-3-2-3-2-2-3-2-3-2-2-2-2-6\5\3\2-|
|-0-0-1-0-0-1-0-1---------3\--1-0-1-0-0-1-0-1-0-0-0-0---------| Rpt 5 X



  [--PM--]   [-PM--] [PM-]  [--PM--]    [-PM-] [PM]
|--------------------------------------------------------|
|--------------------------------------------------------|
|---------4---------4-----5---------4---------4-----5----|
|---------2-3-------2-----3---------2-3-------2-----3-4\-|
|-0-1-2-3---1-0-1-2---1-2---0-1/2/3---1-0-1-2---1-2---2\-|
|--------------------------------------------------------|

  [--PM--]   [-PM--] [PM-]  [--PM--]    [-PM-] [PM]
|--------------------------------------------------------|
|--------------------------------------------------------|
|---------4---------4-----5---------4---------4-----5----|
|---------2-3-------2-----3---------2-3-------2-----3-2--|
|-0-1-2-3---1---1-2---1-2---0-1-2-3---1---1-2---1-2---2--|
|-------------0-------------------------0----------------|

 [PM]   [PM]  PM                PM [PM]   PM  [-PM--]
|-------------------------------------------------------------|
|-------------------------------------------------------------|
|-----------------4-------------------------------------------|
|-----------------2-3---6---4-------------------------6\5\3\2-|
|-2-2-3-2-2-3-2-3---1-x-4-5\2-3-2-3-2-2-3-2-3-2-2-2-2-6\5\3\2-|
|-0-0-1-0-0-1-0-1---------3\--1-0-1-0-0-1-0-1-0-0-0-0---------| Rpt 4 X


  [--PM--]   [-PM--] [PM-]  [--PM--]    [-PM-] [PM] 
|-------------------------------------------------------|
|-------------------------------------------------------|
|---------4-------4-------5---------4-------4-------5---|
|---------2-3-----2-------3---------2-3-----2-------5-5-|
|-0-1-2-3---1-0-1---0-1-2---0-1-2-3---1-0-1---0-1-2-----|
|-------------------------------------------------------|

  [--PM--]   [-PM--] [PM-]  [--PM--]    [-PM-] [PM]
|-------------------------------------------------------|
|-------------------------------------------------------|
|---------4-------4-------5---------4-------4-----5-----|
|---------2-3-----2-------3---------2-3-----2-----3-2---|
|-0-1-2-3---1-0-1---0-1-2---0-1-2-3---1-0-1---0-1---2---|
|-----------------------------------------------------0-|


 [PM]   [PM]  PM                PM [PM]   PM  [-PM--]
|-------------------------------------------------------------|
|-------------------------------------------------------------|
|-----------------4-------------------------------------------|
|-----------------2-3---6---4-------------------------6\5\3\2-|
|-2-2-3-2-2-3-2-3---1-x-4-5\2-3-2-3-2-2-3-2-3-2-2-2-2-6\5\3\2-|
|-0-0-1-0-0-1-0-1---------3\--1-0-1-0-0-1-0-1-0-0-0-0---------| 

 [PM]   [PM]  PM                PM [PM]   PM  [-PM--]
|------------------------------------------------------------|
|------------------------------------------------------------|
|-----------------4------------------------------------------|
|-----------------2-3---6---4-------------------------6\5\3\-|
|-2-2-3-2-2-3-2-3---1-x-4-5\2-3-2-3-2-2-3-2-3-2-2-2-2-6\5\3\-|
|-0-0-1-0-0-1-0-1---------3\--1-0-1-0-0-1-0-1-0-0-0-0--------|


 Guitar 1
[-----------------------------------------------|
[-----------------------------------------------|
[-----------------------------------------------|
[-----------------------------------------------|
[-2---------------------(2)---------------------|
[-0---------------------(0)---------------------|
[Guitar 2
[  [------PM------]       [------PM------]
[-----------------------------------------------|
[-----------------------------------------------|
[-----------------------------------------------|
[------------------3-4\3------------------3-----|
[-2----------------1-2\1-2----------------1-4/5-|
[-0-00000000000000-------0-00000000000000---2/3-|


 Both guitars, Main Riff.

   [------PM------]       [------PM------]
|-----------------------------------------------|
|-----------------------------------------------|
|-----------------------------------------------|
|------------------3-4\3------------------3-4\3-|
|-2----------------1-2\1-2----------------1-2\1-|
|-0-00000000000000-------0-00000000000000-------|

   [------PM------]       [------PM------]
|-----------------------------------------------|
|-----------------------------------------------|
|-----------------------------------------------|
|------------------3-4\3------------------3-----|
|-2----------------1-2\1-2----------------1-4/5-|
|-0-00000000000000-------0-00000000000000---2/3-|

 Rpt Main Riff 2 X

 Verse

 Rpt Main Riff 2 X

 Chorus
 
    [------PM-------]     [-PM-] [-PM-] [-PM-]
|------------------------------------------------------|
|------------------------------------------------------|
|-0----------------------------------------------------|
|-0-----------------------------3-------------3--------|
|--------------------1----------1------3------1-5---3--|
|-3-0000000000000000---3-1-0000---0000-1-0000---3-x-1--| Rpt

 [-PM-] [-PM-] [-PM-]
|-----------------------------|
|-----------------------------|
|-----------------------------|
|------3-------------3--------|
|------1------3------1-5---3--|
|-0000---0000-1-0000---3-x-1--|

 Rpt Verse
 Rpt Chorus

 Interlude


  [----------------------------PM------------------------------]
|---------------------------------------------------------------|
|---------------------------------------------------------------|
|---------------------------------------------------------------|
|-9-9-9-9--9-9-9-9--9-9-9-9--9-9-9-9--9-9-9-9--9-9-9-9--9-9-9-9-|
|-7-7-7-7--7-7-7-7--7-7-7-7--7-7-7-7--7-7-7-7--7-7-7-7--7-7-7-7-|
|-0-0-0-0--0-0-0-0--0-0-0-0--0-0-0-0--0-0-0-0--0-0-0-0--0-0-0-0-| Rpt


 [------PM--------]
|------------------|
|------------------|
|------------------|
|-9-9-9-9--9-9-9-9-|
|-7-7-7-7--7-7-7-7-|
|-0-0-0-0--0-0-0-0-|

  [--PM--]      [-PM-]    [PM]       [---PM--]
|---------------------------------------------|
|---------------------------------------------|
|---------------------------------------------|
|---------4\3-------------------4\3-----------|
|-2-2-2-2-2\1---2-2-2-4\3-------2\1-----------|
|-0-0-0-0-----0-0-0-0-2\1-0-0-x-----0-1-1-1-1-| Rpt 4 X

  [-------------PM--------------]
|---------------------------------|
|---------------------------------|
|---------------------------------|
|---------------------------------|
|-5-5-5-5-5-5-5-5-5-5-5-5-5-5-5-5-|
|-3-3-3-3-3-3-3-3-3-3-3-3-3-3-3-3-| Rpt

 The above riffs are also the backing for the guitar solo.

 Guitar solo

 Pick scrape ~~~~
|---------------------------11-----------------------------|
|---------------------12-11----12-13p12--------------------|
|-\----------9----\/9-------------------14-12-11-12p11\9\8-|
|-\\-------------------------------------------------------|
|--\-------------------------------------------------------|
|----------------------------------------------------------|

                                                        ~~~~~
|-------------------------------------------------------------------|
|-------------------------------------------------------------------|
|-------------------------------------------------------------------|
|-10-9-7\5--------------------7-9-10p9p7---------9---9--------------|
|----------7p6-7--7-9-10-9-10------------10p9p7--7-x-7--------------|
|------------------------------------------------------2b-----------|

    h h    h h   h                                     ~~~~~~~~~~~~
|------------------------/12\7/13\-/15\-/17\-/19\-18\---------------|
|------------------3/5-3------------------------------19b-18b-------|
|--------------2-4--------------------------------------------------|
|-2-4-5--2-4-5------------------------------------------------------|
|-------------------------------------------------------------------|
|-------------------------------------------------------------------|

      h           h           h           h     h               ~~~~
|-12-15p12----12-15p12----12-15p12----15-17p15-19p-15p12------------|
|----------13----------13----------13--------------------15-12\11---|
|-------------------------------------------------------------------|
|-------------------------------------------------------------------|
|-------------------------------------------------------------------|
|-------------------------------------------------------------------|

                     h              h           h  h
|-------------------------------------------------------------------|
|-------12----15-12-13p12----12-------------------------------------|
|-/9--9----12-------------14----11-12p11\9\8-9-11-12----------------|
|----------------------------------------------------10\9\8\7\6\5---|
|-------------------------------------------------------------------|
|-------------------------------------------------------------------|

  ~~~~~~~~~~~
|----------------------------7-10p9-----12p1010-------13-1111-------|
|------------------------5-7--------12----------13-12---------14-13-|
|------------0-2-4-4-5-7--------------------------------------------|
|-------------------------------------------------------------------|
|-------------------------------------------------------------------|
|-2b----------------------------------------------------------------|

                                          ~~~~~~~~~~~~~
|-15-1313-------16\-18p15----14-15----14-15b-----------|
|---------16-15-----------18-------18------------------|
|------------------------------------------------------|
|------------------------------------------------------|
|------------------------------------------------------|
|------------------------------------------------------|

                                     ~~~~~~~~~~~
|-18p15----15-------15-17-------------------------------------|
|-------18----17-15-------17-15-13----------------------------|
|----------------------------------14b---------<9>-trem dive--|
|-------------------------------------------------------------|
|-------------------------------------------------------------|
|-------------------------------------------------------------|

  [--PM--]      [-PM-]    [PM]       [---PM--]
|---------------------------------------------|
|---------------------------------------------|
|---------------------------------------------|
|---------4\3-------------------4\3-----------|
|-2-2-2-2-2\1---2-2-2-4\3-------2\1-----------|
|-0-0-0-0-----0-0-0-0-2\1-0-0-x-----0-1-1-1-1-| Rpt 2 X

 Rpt Main Riff 4 X

 Rpt Verse and Chorus

 [-PM-] [-PM-] [-PM-]
|-----------------------------|
|-----------------------------|
|-----------------------------|
|------3-------------3--------|
|------1------3------1-5---3--|
|-0000---0000-1-0000---3-x-1--| Rpt

 [-PM-] [-PM-] [-PM-]
|-------------------------------|
|-------------------------------|
|-------------------------------|
|------3-------------3----------|
|------1------3------1-5---3--2-|
|-0000---0000-1-0000---3-x-1--0-|



END

Tap to rate this tab
# A B C D E F G H I J K L M N O P Q R S T U V W X Y Z