Guitaretab - guitar tabs
Song name
# A B C D E F G H I J K L M N O P Q R S T U V W X Y Z

Sacred Reich - Surf Nicaragua tab

Band:  Sacred Reich
Album: Surf Nicaragua EP
Song:  Surf Nicaragua

Copyright (c)  (Road Runner) (1988)
Version 1.0 - (23/01/07)

Transcribed By: Steve
Email:          stephen.elvidge1@ntlworld.com


.  - palm mute           /  - slide up to
\  - slide down to       ~  - vibrato
h  - hammer on           b  - Bend
p  - pull off            Suffixes for bend
t  - tap                 f  - full bend    h - half bend
ph - pinched harmonic    q  - quarter bend t - tap bend
*  - see comment         ^  - Hold bend    r release bend
x  - Stuccatto           ~  - vibrato bend
,  - slight palm mute    () - ghost note, sustained note
"  - tremolo note        <> - harmonic
pb - pre bend

Tuning E A D G B E



 Main Riff
    [-PM-]         [-PM-]             [-PM-]          [-PM-][-PM-]
|-------------------------------------------------------------------|
|-------------------------------------------------------------------|
|-------------------------------------------------------------------|
|-2--------7/8\7-2--------4/55-3-(3)-2--------7/8\7-2--------4/55-3-|
|-0-0000-0-5/6\5-0-0000-0-2/33-1-(1)-0-0000-0-5/6\5-0-0000-0-2/33-1-|
|-------------------------------------------------------------------| Rpt 4 X

 Chorus

|------------------------------|
|------------------------------|
|------------------------------|
|------------------------------|
|-2------5-------------5/6-6/7-|
|-0--0-0-3-0-0-0-0-0-0-3/4-4/5-| Rpt 3 X

|------------------------------|
|------------------------------|
|------------------------------|
|------------------------------|
|-2------5-------2-------------|
|-0--0-0-3-0-0-0-0-------------|

 Rpt Verse
 Rpt Chorus


 Mid 8

 Guitar 1
 [-PM-] [-----PM----]~~~~  [-PM-]  [--PM--]      ~~       ~~~
[-------------------------------------------------------------|
[-------------------------------------------------------------|
[----------------------8----------5---------------5-----------|
[-2------5-------------8---2------5---------7p5-7----7p5-7-5--|
[-0--0-0-3-0-0-0-0-0-0-----0--0-0---0-0-0-0-------------------|
[-------------------------------------------------------------|
[Guitar 2
[
[-------------------------------------------------------------|
[-------------------------------------------------------------|
[-5----------(5)-----------/8----------------(8)--------------|
[-5----------(5)-----------/8----------------(8)--------------|
[-------------------------------------------------------------|
[-------------------------------------------------------------|

 Guitar 1
  [-PM-] [-----PM----]~~~~  [-PM-]  [--PM--]
[--------------------------------------------------------------|
[--------------------------------------------------------------|
[----------------------8----------5----------------------------|
[-2------5-------------8---2------5---------7p5---5-5-7p5------|
[-0--0-0-3-0-0-0-0-0-0-----0--0-0---0-0-0-0-----7---------7-3--|
[--------------------------------------------------------------|
[Guitar 2
[
[--------------------------------------------------------------|
[--------------------------------------------------------------|
[-5----------(5)-----------8----------------(8)----------------|
[-5----------(5)-----------8----------------(8)----------------|
[--------------------------------------------------------------|
[--------------------------------------------------------------|


 Both guitars

  [-PM-] [-----PM----]~~~~  [-PM-]  [--PM--]      ~~       ~~~
|-------------------------------------------------------------|
|-------------------------------------------------------------|
|----------------------8----------5---------------5-----------|
|-2------5-------------8---2------5---------7p5-7----7p5-7-5--|
|-0--0-0-3-0-0-0-0-0-0-----0--0-0---0-0-0-0-------------------|
|-------------------------------------------------------------|

  [-PM-] [-----PM----]~~~~  [-PM-]  [--PM--]      ~~      
|---------------------------------------------------------------------|
|---------------------------------------------------------------------|
|----------------------8----------5---------------5-------------------|
|-2------5-------------8---2------5---------7p5-7----7p5-5-----(5)----|
|-0--0-0-3-0-0-0-0-0-0-----0--0-0---0-0-0-0--------------3-----(3)----|
|---------------------------------------------------------------------|


 Surf section

 Guitar 1
 [-PM--]   [-PM-]
|--------------------|
|--------------------|
|--------------------|
|---5-6-7-7-7-5-2-2--|
|-0-3-4-5-5-5-3-0-0--|
|--------------------|
 Guitar 2

|--------------------|
|--------------------|
|---5-6-7-7-7-5------|
|-7-5-6-7-7-7-5-7-7--|
|-7-------------7-7--|
|--------------------| Rpt 4 X

 Guitar 1
 [-PM--]   [-PM-]    [-PM--]   [-PM-]
|--------------------------------------|
|--------------------------------------|
|---5-6-7-7-7-5-2-2---5-6-7-7-7-5-2-2--|
|-0-3-4-5-5-5-3-0-0-0-3-4-5-5-5-3-0-0--|
|--------------------------------------|
|--------------------------------------|
 Guitar
 [-PM--]   [-PM-]    [-PM--]   [-PM-]
|--------------------------------------|
|---6-7-8-8-8-6-------6-7-8-8-8-6------|
|-7-5-6-7-7-7-5-7-7-7-5-6-7-7-7-5-7-7--|
|-7-------------7-7-7-------------7-7--|
|--------------------------------------|
|--------------------------------------|

 Guitar 1
 [-PM--]   [-PM-]
|--------------------|
|--------------------|
|--------------------|
|---5-6-7-7-7-5-2-2--|
|-0-3-4-5-5-5-3-0-0--|
|--------------------|
 Guitar 2
 [-PM--]   [-PM-]
|--------------------|
|--------------------|
|---5-6-7-7-7-5------|
|-7-5-6-7-7-7-5-7-7--|
|-7-------------7-7--|
|--------------------| Rpt

 Guitar
 [-PM--]   [-PM-]    [-PM--]   [-PM-]
|-------------------------------------------------------------------|
|-------------------------------------------------------------------|
|-4-7-8-9-9-9\7\4---------------------------------------------------|
|-2-5-6-7-7-7\5\2-7p6-5-5-5p3---5-6-7-7-7-5-2-----2-2-2-2-2-2-2-2-\-|
|-----------------------------5-3-4-5-5-5-3-0-0-3p0-0-0-0-0-0-0-0-\-|
|-------------------------------------------------------------------|
 Guitar 2
|-------------------------------------------------------------------|
|---8-910-10109-----------------------------------------------------|
|---7-8-9-9-9-7-9-9p8-7-7-7p5---7-5-6-7-7-7-5-7-5-------------------|
|---------------9-------------7-7-5-6-7-7-7-5-7-5---7------(7)------|
|---------------------------------------------------7------(7)------|
|-------------------------------------------------------------------|
[ Tab from: http://www.guitaretab.com/s/sacred-reich/84062.html ]
 Guitar 1
 [-PM-] [-----PM----]  ~~~  [-PM-]  [--PM--]      ~~       ~~~
[-------------------------------------------------------------|
[-------------------------------------------------------------|
[----------------------8----------5---------------5-----------|
[-2------5-------------8---2------5---------7p5-7----7p5-7-5--|
[-0--0-0-3-0-0-0-0-0-0-----0--0-0---0-0-0-0-------------------|
[-------------------------------------------------------------|
[Guitar 2
[
[-------------------------------------------------------------|
[-------------------------------------------------------------|
[-5----------(5)-----------/8----------------(8)--------------|
[-5----------(5)-----------/8----------------(8)--------------|
[-3----------(3)-----------/6----------------(6)--------------|
[-3----------(3)-----------/6----------------(6)--------------|

 Guitar 1
  [-PM-] [-----PM----]~~~~  [-PM-]  [--PM--]
[--------------------------------------------------------------|
[--------------------------------------------------------------|
[----------------------8----------5----------------------------|
[-2------5-------------8---2------5---------7p5---5-5-7p5------|
[-0--0-0-3-0-0-0-0-0-0-----0--0-0---0-0-0-0-----7---------7-3--|
[--------------------------------------------------------------|
[Guitar 2
[
[--------------------------------------------------------------|
[--------------------------------------------------------------|
[-5----------(5)-----------/8----------------(8)---------------|
[-5----------(5)-----------/8----------------(8)---------------|
[-3----------(3)-----------/6----------------(6)---------------|
[-3----------(3)-----------/6----------------(6)---------------|




  [-PM-] [-----PM----]~~~~  [-PM-]  [--PM--]      ~~       ~~~
|-------------------------------------------------------------|
|-------------------------------------------------------------|
|----------------------8----------5---------------5-----------|
|-2------5-------------8---2------5---------7p5-7----7p5-7-5--|
|-0--0-0-3-0-0-0-0-0-0-----0--0-0---0-0-0-0-------------------|
|-------------------------------------------------------------|

  [-PM-] [-----PM----]~~~~  [-PM-]  [--PM--]      ~~      
|-----------------------------------------------------------|
|-----------------------------------------------------------|
|----------------------8----------5---------------5---------|
|-2------5-------------8---2------5---------7p5-7----7p5-5--|
|-0--0-0-3-0-0-0-0-0-0-----0--0-0---0-0-0-0--------------3--|
|-----------------------------------------------------------|




|---------------------------------------------------------------|
|---------------------------------------------------------------|
|---------------------------------------------------------------|
|-7-------------------7-------------------12--------------------|
|-5-----drum fill-----5-----drum fill-----10-----drum fill------|
|---------------------------------------------------------------|


|-------------------------------------------------------|
|-------------------------------------------------------|
|-------------------------------------------------------|
|-7-------------------14-------------12-----------------|
|-5-----drum fill-----12--drum fill--10--drum fill------|
|-------------------------------------------------------|

|----------------------------|
|----------------------------|
|----------------------------|
|-7---7---7--2-2-2-2-2-2-2---|
|-5---5---5--0-0-0-0-0-0-0---|
|----------------------------|

 Rpt Mid 8

   PM         [---PM----]  [PM-]             [---PM----]       
|---------------------------------------------------------|
|---------------------------------------------------------|
|---------------------------------------------------------|
|---------------------------------------------------------|
|-2---/5-5-5/7-----------2---/55-5-drum fill--------------|
|-0-00/3-3-3/5-0-6-5-3-5-0-00/33-3------------0-6-5-3-5---|

   PM         [---PM----]  [PM-]          
|---------------------------------------------|
|---------------------------------------------|
|---------------------------------------------|
|---------------------------------------------|
|-2---/5-5-5/7-----------2---/55-5-drum fill--|
|-0-00/3-3-3/5-0-6-5-3-5-0-00/33-3------------|

 Rpt above 3 x

 Backing for solo

   PM         [---PM----]  [PM-]          [---PM----]       
|------------------------------------------------------|
|------------------------------------------------------|
|------------------------------------------------------|
|------------------------------------------------------|
|-2---/5-5-5/7-----------2---/55-5---------------------|
|-0-00/3-3-3/5-0-6-5-3-5-0-00/33-3---------0-6-5-3-5---|

   PM         [---PM----]  [PM-]          
|------------------------------------------------|
|------------------------------------------------|
|------------------------------------------------|
|------------------------------------------------|
|-2---/5-5-5/7-----------2---/55-2------(2)------|
|-0-00/3-3-3/5-0-6-5-3-5-0-00/33-0------(0)------|

 Rpt 4 x



   PM         [---PM----]  [PM-]             [---PM----]       
|---------------------------------------------------------|
|---------------------------------------------------------|
|---------------------------------------------------------|
|---------------------------------------------------------|
|-2---/5-5-5/7-----------2---/55-5-drum fill--------------|
|-0-00/3-3-3/5-0-6-5-3-5-0-00/33-3------------0-6-5-3-5---|

   PM         [---PM----]  [PM-]          
|---------------------------------------------|
|---------------------------------------------|
|---------------------------------------------|
|---------------------------------------------|
|-2---/5-5-5/7-----------2---/55-2-drum fill--|
|-0-00/3-3-3/5-0-6-5-3-5-0-00/33-0------------|

 
   PM         [---PM----]  [PM-]          [---PM----]       
|------------------------------------------------------|
|------------------------------------------------------|
|------------------------------------------------------|
|------------------------------------------------------|
|-2---/5-5-5/7-----------2---/55-5---------------------|
|-0-00/3-3-3/5-0-6-5-3-5-0-00/33-3---------0-6-5-3-5---|

   PM         [---PM----]  [PM-]          
|------------------------------------------------|
|------------------------------------------------|
|------------------------------------------------|
|------------------------------------------------|
|-2---/5-5-5/7-----------2---/55-2------(2)------|
|-0-00/3-3-3/5-0-6-5-3-5-0-00/33-0------(0)------|

 
   PM         [---PM----]  [PM-]          [---PM----]       
|------------------------------------------------------|
|------------------------------------------------------|
|------------------------------------------------------|
|------------------------------------------------------|
|-2---/5-5-5/7-----------2---/55-5---------------------|
|-0-00/3-3-3/5-0-6-5-3-5-0-00/33-3---------0-6-5-3-5---|

   PM         [---PM----]  [PM-]          
|-----------------------------------------------|
|-----------------------------------------------|
|-----------------------------------------------|
|-----------------------------------------------|
|-2---/5-5-5/7-----------2---/55-2---(2)---5-6--|
|-0-00/3-3-3/5-0-6-5-3-5-0-00/33-0---(0)---3-4--|

 Rpt Main riff, verse and chorus


|-------|
|-------|
|-------|
|-------|
|-7--2--|
|-5--0--|




END

Related for Surf Nicaragua tab