Song name
# A B C D E F G H I J K L M N O P Q R S T U V W X Y Z

Sacred Storm - Legion tab

Straight from Master Kenny himself, here's the intro riff to Legion
(standard tuning; all open low E's are palm muted)

e-------------------------------------|
B-------------------------------------|
G-------------------------------------|
D--------9--------8-------10--------9-|(let ring)
A--------7-------10--------8--------7-|(let ring)
E--0--0-----0--0-----0--0-----0--0----|

e---------------------------------------------|
B---------------------------------------------|
G---------------------------------------------|
D--------9--------8-------10--------9---8---7-|
A--------7-------10--------8-------10---9---8-|
E--0--0-----0--0-----0--0-----0--0----0---0---|

www.sacredstorm.net
Tap to rate this tab
 
# A B C D E F G H I J K L M N O P Q R S T U V W X Y Z