Song name
# A B C D E F G H I J K L M N O P Q R S T U V W X Y Z

Sacrilege - When Your Asleep tab

---------------------------------------------------------------------------
			When your asleep -  Saērilege
---------------------------------------------------------------------------

Tabbed by: Kade (aka Peanut)
Email: Sacrilege@hotmail.co.uk

Tuning: Standard

This is 100% authentic as im the guitarist in Saērilege!!!


  Verse

e|------------------------------------------------|
B|------------------------------------------------|
G|--------------------------6-66-66----3333-------|
D|----3-33-33----6-66-66----6-66-66----3333-------|
A|----3-33-33----6-66-66----4-44-44----1111-------|
E|----1-11-11----4-44-44--------------------------|

e|------------------------------------------------|
B|------------------------------------------------|
G|--------------------------6~~~~~~----333--------|
D|----3-33-33----6-66-66----6~~~~~~----333--------|
A|----3-33-33----6-66-66----4~~~~~~----111--------|
E|----1-11-11----4-44-44--------------------------|

e|------------------------------------------------|
B|------------------------------------------------|
G|--------------------------6-66-66----3333-------|
D|----3-33-33----6-66-66----6-66-66----3333-------|
A|----3-33-33----6-66-66----4-44-44----1111-------|
E|----1-11-11----4-44-44--------------------------|

e|------------------------------------------------|
B|------------------------------------------------|
G|--------------------------6~~~~~~----333--------|
D|----3-33-33----6-66-66----6~~~~~~----333--------|
A|----3-33-33----6-66-66----4~~~~~~----111--------|
E|----1-11-11----4-44-44--------------------------|

 Chorus

e|------------------------------------------------|
B|------------------------------------------------|
G|----99999----77777----44444----4-4-4-4----------|
D|----99999----77777----44444----4-4-4-4----------|   x2
A|----77777----55555----22222----2-2-2-2----------|
E|------------------------------------------------|

  Verse

e|------------------------------------------------|
B|------------------------------------------------|
G|--------------------------6-66-66----3333-------|
D|----3-33-33----6-66-66----6-66-66----3333-------|
A|----3-33-33----6-66-66----4-44-44----1111-------|
E|----1-11-11----4-44-44--------------------------|

e|------------------------------------------------|
B|------------------------------------------------|
G|--------------------------6~~~~~~----333--------|
D|----3-33-33----6-66-66----6~~~~~~----333--------|
A|----3-33-33----6-66-66----4~~~~~~----111--------|
E|----1-11-11----4-44-44--------------------------|

e|------------------------------------------------|
B|------------------------------------------------|
G|--------------------------6-66-66----3333-------|
D|----3-33-33----6-66-66----6-66-66----3333-------|
A|----3-33-33----6-66-66----4-44-44----1111-------|
E|----1-11-11----4-44-44--------------------------|

e|------------------------------------------------|
B|------------------------------------------------|
G|--------------------------6~~~~~~----333--------|
D|----3-33-33----6-66-66----6~~~~~~----333--------|
A|----3-33-33----6-66-66----4~~~~~~----111--------|
E|----1-11-11----4-44-44--------------------------|

 Chorus

e|------------------------------------------------|
B|------------------------------------------------|
G|----99999----77777----44444----4-4-4-4----------|
D|----99999----77777----44444----4-4-4-4----------|   x2
A|----77777----55555----22222----2-2-2-2----------|
E|------------------------------------------------|


Solo to be done yet. 
Most of song done in fast up down strokes.
Tap to rate this tab
# A B C D E F G H I J K L M N O P Q R S T U V W X Y Z