Sad Brad Smith - Help Yourself tab

-------------------------------------------------------------------------------
			     HELP YOURSELF - SAD BRAD SMITH
-------------------------------------------------------------------------------
Tabbed by: elme1890
Email: happyknappy03@hotmail.com

Tuning: Standard with Capo on 4th

INTRO: 4X C
e|---------------------------------------------------------------------------|
B|----1----------1----------1----------1-------------------------------------|
G|--------0----------0----------0----------0---------------------------------|
D|------2----------2----------2----------2-----------------------------------|
A|--3---------------------3--------------------------------------------------|
E|-------------3---------------------3---------------------------------------|

VERSE: C Am F
e|---------------------------------------------------------------------------|
B|----1-------1---------1---------1----------1---------1--------1-------1----|
G|--------0-------0---------0---------0----------0---------0--------0-------0|
D|------2-------2---------2---------2----------2---------2--------2-------2--|
A|--3-----------------3--------------------3------------------3--------------|
E|----------3-------------------3--------------------3----------------3------|

e|---------------------------------------------------------------------------|
B|----1-------1---------1---------1---------1-------1-------1-------1--------|
G|--------2-------2---------2---------2---------2-------2-------2-------2----|
D|------2-------2---------2---------2---------3-------3-------3-------3------|
A|--0-----------------0---------------------------3---------------3----------|
E|----------0-------------------0---------1---------------1------------------|

CHORUS: C F
e|---------------------------------------------------------------------------|
B|----1-------1---------1---------1----------1---------1--------1-------1----|
G|--------0-------0---------0---------0----------0---------0--------0-------0|
D|------2-------2---------2---------2----------2---------2--------2-------2--|
A|--3-----------------3--------------------3------------------3--------------|
E|----------3-------------------3--------------------3----------------3------|

e|---------------------------------------------------------------------------|
B|----1--------1--------1--------1-------1-------1-------1-------1-----------|
G|--------2--------2--------2-------2--------2-------2-------2-------2-------|
D|------3--------3--------3-------3--------3-------3-------3-------3---------|
A|-----------3----------------3----------------3---------------3-------------|
E|--1----------------1----------------1----------------1---------------------|
BRIDGE C Am G
e|---------------------------------------------------------------------------|
B|---1-------1-------1-------1--------1-------1-------1-------1--------------|
G|-------0-------0-------0-------0--------2-------2-------2-------2----------|
D|-----2-------2-------2-------2--------2-------2-------2-------2------------|
A|-3---------------3-------2--------0---------------0------------------------|
E|---------3--------------------------------0---------------0----------------|

e|---------------------------------------------------------------------------|
B|----1-------1-------1-------1--------1-------1-------1-------1-------------|
G|--------2-------2-------2-------2--------0-------0-------0-------0---------|
D|------2-------2-------2-------2--------2-------2-------2-------2-----------|
A|--0---------------0----------------3---------------3-----------------------|
E|----------0---------------0----------------3---------------3---------------|

e|---------------------------------------------------------------------------|
B|---1-------1-------1-------1--------1-------1-------1-------1--------------|
G|-------0-------0-------0-------0--------2-------2-------2-------2----------|
D|-----2-------2-------2-------2--------2-------2-------2-------2------------|
A|-3---------------3-------2--------0---------------0------------------------|
E|---------3--------------------------------0---------------0----------------|

e|---------------------------------------------------------------------------|
B|----1-------1-------1-------1--------3-------3--------3-------3------------|
G|--------2-------2-------2-------2--------0--------0-------0--------0-------|
D|------2-------2-------2-------2--------0---0----0-------0---0----0---------|
A|--0---------------0--------------------------------------------------------|
E|----------0---------------0--------3---------------3-----------------------|


e|---------------------------------------------------------------------------|
B|----3-------3-------3-------3----------------------------------------------|
G|--------0-------0-------0-------0------------------------------------------|
D|------0-------0-------0-------0--------------------------------------------|
A|----------0---------------0------------------------------------------------|
E|--3---------------3--------------------------------------------------------|

BACK TO VERSE

Once I get the short solo I will add it, hope this helps
There could be a typo since I did this fairly quickly

Tap to rate this tab
 
# A B C D E F G H I J K L M N O P Q R S T U V W X Y Z