Song name
# A B C D E F G H I J K L M N O P Q R S T U V W X Y Z

Sade - No Ordinary Love tab

SADE - "No Ordinary love"
As played by Deftones

Normal Tuning E A D G

Bass Line
e|-----||------------------------------------|| 
B|-----||------------------------------------||
G|-----||.----------------------------------.||
D|-----||.----------------------------------.||
A|-----||---------------5--------------------||
E|--7--||----7(p5)-5--7-----7---7(p5)-7------||


Verse (the bottom notes are my attempt at harmonization)
E|---------------------------|---------------------------
B|--------------------8\7----|---------------------------
G|--4----4/6----6/7---7-7----|---------------------------
D|->4----4-4----4-7----------|---------------------------
A|---------------------------|---------------------------
E|---------------------------|---------------------------

…you and I baby              no ordinary love
E|--------------------------|---------------------------
B|--------------------------|---------------------------
G|---------------4----------|------------------4--------
D|---------------4----------|------------------4--------
A|---------------2----------|------------------2--------
E|---------------2----------|------------------2--------


Tap to rate this tab
 
# A B C D E F G H I J K L M N O P Q R S T U V W X Y Z