Song name
# A B C D E F G H I J K L M N O P Q R S T U V W X Y Z

Sade - Sweetest Taboo tab

Sade - The Sweetest Taboo 
Tabbed by RTBM
Tuning B E A D G



Main part 
G|--------------------|
D|--------------------|
A|--------------------|
E|-6-4-6--4-4-6-------|
B|--------------------|


You Gimme the sweetest taboo 
G|---------------------|
D|---------------------|
A|----------4-6--------|
E|-6-4-6--4-----4------|
B|---------------------|


I'd do anything for you
G|---------------------------88---------------|
D|--------------------------------------------|
A|-----------------6-4h6-4h6-----456-456------|
E|-6-4-6-0h4-6-4-6-----------------------4----|
B|--------------------------------------------|
   s s s s   s s s s s   s   pp      



Anything you want me to do
G|----------------------6-66h8-------8-6-8h10-|
D|--------------------------------------------|
A|-----------------6-6---------4h5h6----------|
E|-6-4-6-0h4-6-4-6----------------------------|
B|--------------------------------------------|
   s s s s   s s s s s  p ss   s   s p s s


Main Fill : There's a quiet storm,I think it's you
G|------------88------|
D|--------------------|
A|--------------------|
E|-6-4-6--4-4---------|
B|--------------------|
              pp   
Tap to rate this tab
# A B C D E F G H I J K L M N O P Q R S T U V W X Y Z