Song name
# A B C D E F G H I J K L M N O P Q R S T U V W X Y Z

Sadgasm - Margerine tab

FIRST:


|----------------------------------|
|----------------------------------|
|----------5-----------------------|
|--3-------5--(x8)-7-------8-------|
|--3--(x8)-3-------7--(x8)-8--(x8)-|
|--1---------------5-------6-------|

         Spread yellow gunk on my pancake heart
         Country churned girl in my grossery cart
         I paid for her dreams
         She taught me to cry
         Like watery knives
         Like rain from my eyes

Then:


|-----------------------------------|
|-----------------------------------|
|--7-------10-----------------------|
|--7--(x8)-10--(x8)-7-------8-------|
|--5-------8--------7--(x8)-8--(x8)-|
|-------------------5-------6-------|


         I can't believe you're not mine
         I can't believe you're not mine


End:


|-------------------------------------|
|-------------------------------------|
|-------------------------------------|
|--3--------7----------------8--------|
|--3--(x8)--7--(faster x13)--8--(x13)-|
|--1--------5----------------6--------|


              Margerine
              Margerine
              Margerine
              Margerine
              Margerine


Enjoy :)


B.S.
Tap to rate this tab
# A B C D E F G H I J K L M N O P Q R S T U V W X Y Z