Song name
# A B C D E F G H I J K L M N O P Q R S T U V W X Y Z

Sadus - Sadus Attack tab

Help us improve GuitareTab! Take a short survey!
Song: Sadus Attack
Band: Sadus
Album: Illusions/Chemical Exposure/Death To Posers
Tuning: E Standard
Tabbed By Dave Siddons (farmer_siddons@hotmail.com)

Intro A
|----------------------|----------------------|----------------------|----------------------|
|----------------------|----------------------|----------------------|----------------------|
|----------------------|----------------------|----------------------|----------------------|
|----------------------|----------------------|----------------------|----------------------|
|--2----4----5----4----|--2----4----5----4----|--2----4----5----4----|--3----2----3----2----|
|--0----2----3----2----|--0----2----3----2----|--0----2----3----2----|--1----0----1----0----|

Intro B
|-------------|------------------------|------------------------|------------------------|
|-------------|------------------------|------------------------|------------------------|
|-------------|------------------------|------------------------|------------------------|
|-------------|------------------------|------------------------|------------------------|
|--5---3---2--|-3-2--------------------|-3-2--------------------|-3-2--------------------|
|--3---1---0--|-1-0--0-0-0--0-0-0--0-0-|-1-0--0-0-0--0-0-0--0-0-|-1-0--0-0-0--0-0-0--0-0-|


Main Riff
|--------------------------------------------------------------------|
|--------------------------------------------------------------------|
|--------------------------------------------------------------------|
|--------------------------------------------------------------------|
|--------------------------------------------------5---3---2---3--2--|
|--1-0-0-0-0-0-0-0-1-0-0-0-0-0-0-0-1-0-0-0-0-0-0-0-3---1---0---1--0--|


Chorus                                ...ATTACK !!
|-------------------------------------------------|
|-------------------------------------------------|
|-------------------------------------------------|
|-------------------------------------------------|
|--5----2----3----2-------------------------------|
|--3----0----1----0-------------------------------|

Main Riff

End
|----------------------------------------------------|
|----------------------------------------------------|
|----------------------------------------------------|
|----------------------------------------------------|
|--5----3----2----3----2----5----2-------------------|
|--3----1----0----1----0----3----0-------------------|
Related for Sadus Attack tab