Song name
# A B C D E F G H I J K L M N O P Q R S T U V W X Y Z

Sadus - Twisted Face tab

Help us improve GuitareTab! Take a short survey!
Song: Twisted Face
Band: Sadus
Album: Illusions/Chemical Exposure/Death To Posers
Tuning: E Standard
Tabbed By Dave Siddons (farmer_siddons@hotmail.com)

*Note*
The Last Riff Is Missing, I Havent Had Time To Figure It Out, So If
Anybody Can Tab It Out, Or Just Be Patience, I'll Update The Tab


Intro
|----------------------|
|----------------------|
|----------------------|
|----------------------|
|--4------5------------|
|--2------3------------|

Intro B
|--------------------------|
|--------------------------|
|--------------------------|
|--------------------------|
|--4--5--4--5--4--5--4--5--|
|--2--3--2--3--2--3--2--3--|


Bass Solo Bit
|----------------------------|
|----------------------------|
|----------------------------|
|----------------------------|
|--5-------------------------|
|--3-----------------3-2-1-0-|


Riff A
|---------------------------------|----------------------------------|
|---------------------------------|----------------------------------|
|---------------------------------|----------------------------------|
|---------------------------------|----------------------------------|
|------------------------------5--|----------------------------------|
|--0-0-0-0-0-0-0-0-0-0-0-0-0-0-3--|--0-0-0-0-0-0-0-0-0-0-0-0-3-2-1-0-|

|---------------------------------|--------------|
|---------------------------------|--------------|
|---------------------------------|--------------|
|---------------------------------|--------------|
|------------------------------5--|--5---4---3---|
|--0-0-0-0-0-0-0-0-0-0-0-0-0-0-3--|--3---2---1---|

Bridge
|------------------------------------------|
|------------------------------------------|
|------------------------------------------|
|------------------------------------------|
|------------------------------------------|
|--3-2-1-0---3-2-1-0---3-2-1-0---3-2-1-0---|


Verse A 
|----------------------------------|
|----------------------------------|
|----------------------------------|
|----------------------------------|
|----------------------------------|
|--0-0-0-0-3-2-1-0-0-0-0-0-3-2-1-0-|

Verse B
|----------------------------------|
|----------------------------------|
|----------------------------------|
|----------------------------------|
|----------------------------------|
|--0-0-0-0-0-0-0-0-0-0-0-0-3-2-1-0-|


Solo
|-----------------------------------|
|-----------------------------------|
|-----------------------------------|
|-----------------------------------|
|--3-------3--------3---4-----------|
|------2-------2------------2---3---|
Related for Twisted Face tab