Song name
# A B C D E F G H I J K L M N O P Q R S T U V W X Y Z

Saetia - Postlapsaita tab

-------------------------------------------------------------------------------
			     Postlapsaita - Band Name
-------------------------------------------------------------------------------
Its my first tab,,, what are you going to do about it?


Anthony brunetti tabbed this one guys...

Email:bbrunetti@tconl.com

Tuning: norrrmal

Yeah so theres two guitars but it can sound good with just one..


e|-----------------------------------------------------|
B|-------13--------------------10----------------------|
G|---9h10---x0--14---------9h10---x0--12---------------|
D|----------x0--12----------------x0--10---------------|
A|-----------------------------------------------------|
E|-----------------------------------------------------|


e|----------------------------------------------------|
B|-------13--------------------10---------------------|
G|---9h10---x0--14---------9h10---x0--12---------12---|
D|----------x0--12----------------x0--10------------12|
A|----------------------------------------------------|
E|----------------------------------------------------|

e|------------------------------------------------------------|
B|-------13----------------------------10---------------------|
G|---9h10---x0--14---------12------9h10---x0--12--------------|
D|----------x0--12-------12---------------x0--10--------------|
A|------------------------------------------------------------|
E|------------------------------------------------------------|


e|-----------------------------------------------------|
B|-------13--------------------10----------------------|
G|---9h10---x0--14---------9h10---x0--12-12-12-12-12---|
D|----------x0--12----------------x0--10-10-10-10-10---|
A|-----------------------------------------------------|
E|-----------------------------------------------------|


e|--------------------------------------------------------------|   right here
B|-------13---------------------------10-11-10-11---------------|   it is kinda
G|---9h10---x0--14--10-9h10-------9h10------------------------x-|6  hard to
D|----------x0--12----------------------------------------------|  distinguish
A|--------------------------------------------------------------|   between
E|--------------------------------------------------------------|   both guitars

and thats about all i  feel like doing right now.... maybe the rest later..
but if you need more,, after that it kinda does the same thing,, only you palm mute it 
the long notes.

first tab for me,, rate it please.  i love saetia.


| /  slide up
| \  slide down
| h  hammer-on
| p  pull-off
| ~  vibrato
| +  harmonic
| x  Mute note
===============================================================================
Tap to rate this tab
# A B C D E F G H I J K L M N O P Q R S T U V W X Y Z