Song name
# A B C D E F G H I J K L M N O P Q R S T U V W X Y Z

Saetia - Ariadnes Thread tab

Help us improve GuitareTab! Take a short survey!
-------------------------------------------------------------------------------
			     ARIADNES THREAD - Saetia
-------------------------------------------------------------------------------
Tabbed by: Matthew Green
Email: Matt_green_skater@hotmail.com

Tuning: Drop D

e|-------------------------|
B|----------3-2------------|
G|------2-4----------------|
D|-4-4---------4-4-4-0-0-5-|
A|-4-4-----------4-4-0-0-5-|
D|-4-4-----------4-4-0-0-5-|

e|--------------------------------------------------------|
B|--------------------------------------------------------|
G|-14-14-14-14-18-18-18-18-14-14-14-14-18-18-18-18-19-18--|
D|--------------------------------------------------------|
A|-12-12-12-12-16-16-16-16-12-12-12-12-16-16-16-16-17-16--|
D|--------------------------------------------------------|

e|------------------------------------|
B|------------------------------------|
G|-4-4-4-4-6-6-6-6-4-4-4-4-6-6-7-7-6--|
D|-4-4-4-4-6-6-6-6-4-4-4-4-6-6-7-7-6--|
A|-2-2-2-2-4-4-4-4-2-2-2-2-4-4-5-5-4--|
D|------------------------------------|

e|--14-14-14--------------------------------------------|
B|-----------15-15-15-14-14-14--------------------------|
G|-----------------------------14-14-14-14-14-14-14-14--|
D|------------------------------------------------------|
A|------------------------------------------------------|
D|------------------------------------------------------|

e|------------------------------------------------------------------------|
B|------------------------------------------------------------------------|
G|---11-------------------------------------------------------------------|
D|---11-12-14-9-9-9-11-11-11-11-------------------------------------------|
A|---9--12-14-9-9-9-11-11-11-11-------------------------------------------|
D|---0---12-14-9-9-9-11-11-11-11------------------------------------------|

e|-------------------------------------------------------------------|
B|-------------------------------------------------------------------|
G|-------------------------------------------------------------------|
D|--11-9-11-9--9-9-9-9-9-9-------------------------------------------|
A|--11-9-11-9--9-9-9-9-9-9-------------------------------------------|
D|--11-9-11-9--9-9-9-9-9-9-------------------------------------------|

e|-----------------------------------------------------------------|
B|-----------------------------------------------------------------|
G|-----------------------------------------------------------------|
D|-4-4-4-4-4-4-5-5-0-----------------------------------------------|
A|-4-4-4-4-4-4-5-5-0-----------------------------------------------|
D|-4-4-4-4-4-4-5-5-0-----------------------------------------------|
Related for Ariadnes Thread tab